Rise Against - Weight Of Time Chords & Tabs

 

Weight Of Time Chords & Tabs

Rise Against Chords & Tabs

Version: 1 Type: Bass Tab 0 ratings
1 star 2 stars 3 stars 4 stars 5 stars
comments

Weight Of Time Bass Tab

Band- Rise Against
Song- Weight Of Time

Symbols:
>   repeat note
r   ring note

Intro/Verse (6x)
G--------------------|
D--------------------|
A------4----33-3-333-|
E-55-5--5-5----------|

Chorus
G-------------|-----------------------------|
D-------------|-----------------------------|
A-------------|-----------------------------|
E-3>-1>-33-5>-|-3>-1>-3-55-55-5-55-5-55-5-5-|

G-------------|-----------------|
D-------------|-----------------|
A-------------|-----------------|
E-3>-1>-33-5>-|-3>-1>-3-5-5-5-5-|
[ Tab from: http://www.guitartabs.cc/tabs/r/rise_against/weight_of_time_btab.html ]
- play Verse (4x)
- play Chorus (but play the last A only 1x)

Bridge/Outro
G-------------------------------------------------|
D--------------3>-2222-5555-2>--------------------|
A--------3>-0>------------------------------3>-0>-|
E-5-3-1>-----------------------5-55-3-33-1>-------|

G-------------------------------------|
D-3>-2222-5555-2>---------------------|
A-------------------------------3>-0>-|
E-----------------5555-3333--1>-------|

G---------------------------|------------|
D-3>-2222-5555-2>-----------|-3r---5r----|
A---------------------------|----3-------|
E-----------------5-55-3-33-|---------5r-|
Comments