Rise Against - Voices Off Camera Chords & Tabs

 

Voices Off Camera Chords & Tabs

Rise Against Chords & Tabs

Version: 1 Type: Bass Tab 0 ratings
1 star 2 stars 3 stars 4 stars 5 stars
comments

Voices Off Camera Bass Tab

Band- Rise Against
Song- Voices Off Camera

Intro - Guitars Only

Verse x2                          
Gb|----------------------------------------------|
Db|----------------------------------------------|
Ab|----------------------------------22222-------|
Eb|-4444444444-2222222222-0000000000-------22222-|

Chorus x1 (Follow Guitar)
Gb|-----------------------------------------|
Db|-----------------------------------------|
Ab|-77-66------77-66-99---77-66-----77------|
Eb|-------66-44--------44------66-44--77-4~-|

Verse x2                          
Gb|----------------------------------------------|
Db|----------------------------------------------|
Ab|----------------------------------22222-------|
Eb|-4444444444-2222222222-0000000000------222222-|
[ Tab from: http://www.guitartabs.cc/tabs/r/rise_against/voices_off_camera_btab.html ]
Chorus x1 (Follow Guitar)
Gb|---------------------------------------------|
Db|---------------------------------------------|
Ab|-77-66------77-66-99---77-66-----77----------|
Eb|-------66-44--------44------66-44--77-4-4444-|

-Guitar Break-

Bridge
Gb|----------------------------------------|
Db|----------------------------------------|
Ab|-------------------------22-------------| x2
Eb|-44----------00----------------------22-|

Gb|------------------------------------|
Db|------------------------------------|
Ab|---------1-2-1----------6-777-66-9--| x4
Eb|-44444-2-------2--00000-----------7-|

Chorus x1 (Follow Guitar)
Gb|---------------------------------------------|
Db|---------------------------------------------|
Ab|-77-66------77-66-99---77-66-----77----------|
Eb|-------66-44--------44------66-44--77-4-4444-|
Comments