Rise Against - Torches Chords & Tabs

 

Torches Chords & Tabs

Rise Against Chords & Tabs

Version: 2 Type: Tab 0 ratings
1 star 2 stars 3 stars 4 stars 5 stars
comments

Torches Tab

this song is played on huge amps to get that sound but if you dont have huge amps
little ones work just fine. note that the song uses distortion. this is probably 95% right.
[ Tab from: http://www.guitartabs.cc/tabs/r/rise_against/torches_tab_ver_2.html ]
                           1st guitar
      --------------------------------------------------------------------
      --------------------------------------------------------------------
      -88---66----------------88---69---66---88---------------------------
      -99---88--88---99-------99---811--88---99---------------------------
      ----------99--1111--------------------------------------------------
      --------------------------------------------------------------------
     repeat that 4 times with the second guitar which goes:
                           2nd guitar
      --------------------------------------------------------------------
      --------2h4----------4p2--------------------------------------------
      --------------------------------------------------------------------
      --66-----------66-----------777--~--9999----------------------------
      --66-----------66-----------777--~--9999----------------------------
      --44-----------44-----------555--~--7777----------------------------
   
              listen to the song to get the timing because it kinda wierd. its a great song.
Comments