Rise Against - Torches Chords & Tabs

 

Torches Chords & Tabs

Rise Against Chords & Tabs

Version: 1 Type: Bass Tab 0 ratings
1 star 2 stars 3 stars 4 stars 5 stars
comments

Torches Bass Tab

   
Band- Rise Against
Song- Torches

Standard Tuning: E,A,D,G       

Hammer On: h
Pull Off: *
Let Ring: ~

Opening
G----------------------4---------I
D--------------------4-----6-----I
A------------------2-----4---4---I
E---44---44---44-----------------I

Riff #1
G-------------------------------------------------------4---6---6-----I
D-----------------------------------------------------4---6---6---6---I
A---------------------------------------------------2-----------------I
E---44444444444444444444444444444444444444444444444-------------------I

Riff #2
G---------------------------------------------------------------------------I
D---------------------------------------------------------------------------I
A--------------------22222222-----------------------------------------------I
E---4444444444444444----------22222222-4444444444444444-00000000-22222222---I

Chorus
G--------------------------------------------------------------------------------
D-----------------------------------------------------1-2h-1*--------------------
A---2-1------44-2-11--------------------2-1------44-2----------------------------
E-------44-2---------2-4444444444444444-----44-2--------------4444444444444444---

G---------------------------------------------------------------------------------I
D-----------------------------------------------------1-2h-1*---------------------I
A---2-1------44-2-11--------------------2-1------44-2----------------------2------I
E-------44-2---------2-4444444444444444-----44-2--------------000000000000---2~---I



[ Tab from: http://www.guitartabs.cc/tabs/r/rise_against/torches_btab.html ]
Bridge
G---------------------------------------I
D---------------------------------------I
A---------22-------22-------22-111------I
E---444-4----222-2----444-4--------2~---I

Riff #3
G---------------------------------------------------------------------------------
D---------------------------------------------------------------------------------
A------------------22----------------22----------------22-111111111111----4-2-1---
E---44444444444444----22222222222222----44444444444444-----------------2~---------

G---------------------------------------------------------------------------I
D---------------------------------------------------------------------------I
A------------------22----------------22----------------22-111111111111------I
E---44444444444444----22222222222222----44444444444444-----------------2~---I

Riff #4
G-----------------------I
D-----------------------I
A------2~---------------I
E---4~----2~-4~-0~-2~---I

Chorus #2
G--------------------------------------------------------------------------------
D-----------------------------------------------------1-2h-1*--------------------
A---2-1------44-2-11--------------------2-1------44-2----------------------------
E-------44-2---------2-4444444444444444-----44-2--------------4444444444444444---

G-----------------------------------------------------------------------------------I
D-----------------------------------------------------1-2h-1*-----------------------I
A---2-1------44-2-11--------------------2-1------44-2-------------------------------I
E-------44-2---------2-4444444444444444-----44-2--------------0~-0000000000000000---I

Opening       x1
Riff #1       x2
Riff #2       x2
Chorus        x1
Riff #2       x2
Chorus        x1   
Bridge        x2
Riff #3       x1
Riff #4       x1
Chorus #2     x1
Riff #1       x2     Play Ab once staccato to end the song.
Comments