Rise Against - To Them These Streets Belong Chords & Tabs

 

To Them These Streets Belong Chords & Tabs

Rise Against Chords & Tabs

Version: 1 Type: Bass Tab 0 ratings
1 star 2 stars 3 stars 4 stars 5 stars
comments

To Them These Streets Belong Bass Tab

Band- Rise Against
Song- To Them These Streets Belong

Intro

G|---------------------------------|
D|---------------------------------| 
A|--4-6---2-4-6------4-6---2-4-1---| x 2
E|2---------------2----------------|


Verse - Part one

G|-----------|
D|-----------|  x3
A|>1->1->2->4|
E|-----------|

Verse - Part Two
  
G|-----------------------|
D|-----------------------|
A|>1->1->2->4->6--6-4-2--|
E|-----------------------|

Chorus
[ Tab from: http://www.guitartabs.cc/tabs/r/rise_against/to_them_these_streets_belong_btab.html ]
G|-------------------------------------------------------------|
D|-------------------------------------------------------------|
A|>2->4->6->2->2->4->6->6->2->4->6->2->2->4->6->6--------------|                 
E|-------------------------------------------------------------|

Outro Part 1

G|---------------------------------|
D|---------------------------------| 
A|--4-6---2-4-6------4-6---2-4-1---|x2 (Let Each Note Ring)
E|2---------------2----------------|

Outro Part 2

G|---------------------------------|
D|---------------------------------| 
A|--4-6---2-4-6------4-6---2-4-1---|x2  
E|2---------------2----------------|
(Strum All Notes Around 6 to 8 times, end on 1 and let ring 2nd time) 

Order-
Intro
Verse Part one
Verse Part two
Chorus
Verse Part one
Verse Part two
Chorus
Outro Part 1
Outro Part 2

Comments