Rise Against - To Them The Streets Belong Chords & Tabs

 

To Them The Streets Belong Chords & Tabs

Rise Against Chords & Tabs

Version: 1 Type: Tab 0 ratings
1 star 2 stars 3 stars 4 stars 5 stars
comments

To Them The Streets Belong Tab

   
Song:      to them the streets belong
Artist:    Rise against
Album:     siren song of the counter culture

Everthing exept the chourus sounds correct.
Intro
e|--------------------------------|
B|--------------------------------|
G|--6-8---4-6-8-----6-8---4-6-3---|
D|4-6-8---4-6-8---4-6-8---4-6-1---| Let the Note Ring
A|4-4-6---2-4-6---4-4-6---2-4-1---|
E|2---------------2---------------|

Verse - Part one
e|---------------------------------|
B|---------------------------------|
G|3---3---3---3---44444-66666------|
D|3-1-3-1-3-1-3-1-44444-66666------|  x3
A|1-1-1-1-1-1-1-1-22222-44444------|
E|---------------------------------|

Verse - Part Two
e|-----------------------------------------|
B|-----------------------------------------|
G|3---3---3---3---44444-66666-888888-8-6-4-|
D|3-1-3-1-3-1-3-1-44444-66666-888888-8-6-4-|
A|1-1-1-1-1-1-1-1-22222-44444-666666-6-4-2-|
E|-----------------------------------------|

Chorus..figure out the strumming yourself.
e|---------------------------------------|
B|---------------------------------------|
G|---------------------------------------|
D|4-6-8-4-4-6-8-8911986-4-6-8-4-4-6-8-8--|
A|4-6-8-4-4-6-8-8911986-4-6-8-4-4-6-8-8--|
E|2-4-6-2-2-4-6-679-764-2-4-6-2-2-4-6-6--|
[ Tab from: http://www.guitartabs.cc/tabs/r/rise_against/to_them_the_streets_belong_tab.html ]
Outro Part 1
e|--------------------------------|
B|--------------------------------|
G|--6-8---4-6-8-----6-8---4-6-3---| let the notes ring
D|4-6-8---4-6-8---4-6-8---4-6-1---|
A|4-4-6---2-4-6---4-4-6---2-4-1---|
E|2---------------2---------------|

Outro Part 2
e|-----------------------------------|
B|-----------------------------------|
G|---------66666666-8888666644443333-|
D|44444444-66666666-8888666644443333-|
A|44444444-44444444-6666444422221111-|
E|22222222---------------------------|

e|---------------------------------------|
B|---------------------------------------|
G|--44444444-66666666-88888888888888-----|
D|--44444444-66666666-88888888888888-----|
A|--22222222-44444444-66666666666666-----|
E|---------------------------------------|
e|---------------------------------------|
B|---------------------------------------|
G|---------66666666-88888888888888-------|
D|44444444-66666666-88888888888888-------|
A|44444444-44444444-66666666666666-------|
E|22222222-------------------------------|
e|---------------------------------------|
B|---------------------------------------|
G|--44444444-66666666-3------------------|
D|--44444444-66666666-3------------------|
A|--22222222-44444444-1------------------|
E|---------------------------------------|
Comments