Rise Against - Tip The Scales Chords & Tabs

 

Tip The Scales Chords & Tabs

Rise Against Chords & Tabs

Version: 1 Type: Tab 0 ratings
1 star 2 stars 3 stars 4 stars 5 stars
comments

Tip The Scales Tab

   
ARTIST: Rise Against
TITLE: Tip The Scales
ALBUM: Siren Song of the Counter Culture
TABBED BY: kryptonite22
TUNING: Standard (E A D G B E)
NOTES: There is a lot of palm muting in this song and it was quite hard to tab out,
but I think it's right. Near enough, anyway.

INTRO PART ONE
e|------------------------------------|
B|------------------------------------|
G|------------------------------------|
D|-------------9---7------------------|
A|---7---7-------------10---9---10----|
E|-0---0---0-0---0---0----0---0----0--|

INTRO PART TWO - LEAD (ALSO CHORUS)
e|------------------------------|---------------------------------------|
B|------------------------------|---------------------------------------|
G|-9--9-9-9-16--14--12--11--12--|-7--7-7-12--12--11--11-11-11-11-11-11--|
D|------------------------------|---------------------------------------|
A|-7--7-7-7-14--12--10--9---10--|-5--5-5-10--10--9---9--9--9--9--9--9---|
E|------------------------------|---------------------------------------|

INTRO PART TWO - RHYTHM (ALSO CHORUS)
e|--------------------------------------------------------------|
B|--------------------------------------------------------------|
G|----------5--4--4-4-4-4-4-4-7-5--5-5-5-5-2--7--7-7-7-7-7-7-7--|
D|-2--2-2-2-5--4--4-4-4-4-4-4-7-5--5-5-5-5-2--7--7-7-7-7-7-7-7--|
A|-2--2-2-2-3--2--2-2-2-2-2-2-5-3--3-3-3-3-0--5--5-5-5-5-5-5-5--|
E|-0--0-0-0-----------------------------------5--5-5-5-5-5-5-5--|

PRE-VERSE
|-----------------------|
|-----------------------|
|-11--11--11--11--11-11-|
|-----------------------|
|-----------------------|
|-----------------------|

CHORUS (SAME AS INTRO PART TWO)
[ Tab from: http://www.guitartabs.cc/tabs/r/rise_against/tip_the_scales_tab.html ]
VERSE - LEAD
|-------------------------------------------------------------------|
|-------------------------------------------------5/8--7---7h8------|
|---------------------------------------------------------------7---|
|-2---12-14--12--10--9--10--9---9-10--9--7--5--7--------------------|
|-2-----------------------------------------------------------------|
|-0-----------------------------------------------------------------|

VERSE - RHYTHM
|--------------------------------------------------------|
|--------------------------------------------------------|
|--------------------------------4-----------------------|
|-2--2-2-2-2-2-2-2-2-2-2-2-2-2-2-4--4-4-4-5--4--2--5--2--|
|-2--2-2-2-2-2-2-2-2-2-2-2-2-2-2-2--2-2-2-3--2--0--5--0--|
|-0--0-0-0-0-0-0-0-0-0-0-0-0-0-0-------------------3-----|
     
BRIDGE
|-7------------------------------------------------|-----------------|----|
|-8--8--8-7--8--8--8-7--8--8--8-10--10-10--10--10--|-----------------|----|
|-9--9--9-9--9--9--9-9--9--9--9-9---9--9---9---9---|-7-7-7-7-7-7-7-7-|----|
|--------------------------------------------------|-7-7-7-7-7-7-7-7-|-2--|
|--------------------------------------------------|-5-5-5-5-5-5-5-5-|-2--|
|--------------------------------------------------|-----------------|-0--|

OUTRO PART ONE
|-----------------------------------|-------------------------|
|-----------------------------------|-------------------------|
|-----------------------------------|-------------------------|
|-------------9---7-----------------|-7--7--5--5--4--4--4h5p4-|
|---7---7-------------10---9---10---|-5--5--5--5--5--5--------|
|-0---0---0-0---0---0----0---0----0-|-------------------------|


OUTRO PART TWO
|-------------------------------------------------------------------------|
|-------------------------------------------------------------------------|
|--------9-9-9-9-11-11-11-11-12-12-12--------9-9-9-9-11-11-11-11-12-12-12-|
|-2--2-2------------------------------2--2-2-5-5-5-5-7--7--7--7--9--9--9--|
|-2--2-2-7-7-7-7-9--9--9--9--10-10-10-2--2-2-7-7-7-7-9--9--9--9--10-10-10-|
|-0--0-0------------------------------0--0-0------------------------------|

|---------------------------------------------------------|-----|
|---------------------------------------------------------|-----|
|-5--5-5-5-5-4--5--5-5-5-5-4--7--7-7----------------------|-----|
|-5--5-5-5-5----5--5-5-5-5----7--7-7-5--5--4--4-4-4-4-4-4-|-2---|
|-3--3-3-3-3----3--3-3-3-3----5--5-5-5--5--5--5-5-5-5-5-5-|-2---|
|---------------------------------------------------------|-0---|
Comments