Rise Against - Tip The Scales Chords & Tabs

 

Tip The Scales Chords & Tabs

Rise Against Chords & Tabs

Version: 1 Type: Bass Tab 0 ratings
1 star 2 stars 3 stars 4 stars 5 stars
comments

Tip The Scales Bass Tab

Band- Rise Against
Song- Tip The Scales

Tune down a half step

Intro few bars guitar
bass comes in with this (its same riff as Chorus)
|------------------|
|------------------|
|---5-2>-5-3>-2-5>-| 4x
|-0>---------------|
[ Tab from: http://www.guitartabs.cc/tabs/r/rise_against/tip_the_scales_btab.html ]
Verse
|-------------------------|-----------------------------------------------------|
|-------------------------|-----------------------------------------------------|
|----5>-2>-3>----5>-2>-5>-|---------------3>2-3>2--5>--------------3>2-3>-2-5>--|
|-0>----------0>----------|0-0-----0-0----------------0-0----0-0----------------|

Chorus
|------------------|
|------------------|
|---5-2>-5-3>-2-5>-| 4x
|-0>---------------|

Play:
Verse
Chorus 4x

Bass Solo (not 100% but sounds pretty good)
|-------------------------------------|
|-------------------------------------|
|----------2----------2-333-3-2-55555-| 6x
|-00-2-3-5---33-00-33-----------------|
if you played it 6 time strum the 5 to get into the guitar riff

let Eb-0- ring during the guitar is playing the intro again

Play
2nd Part of Verse 2x

end on Eb-0-
Comments