Rise Against - The Unraveling Chords & Tabs

 

The Unraveling Chords & Tabs

Rise Against Chords & Tabs

Version: 1 Type: Tab 0 ratings
1 star 2 stars 3 stars 4 stars 5 stars
comments

The Unraveling Tab

   
-------------------------------------------------------------------------------
			   THE UNRAVELING - Rise Against
-------------------------------------------------------------------------------
Tabbed by: strungout777
Email: manuel_ramones4life@gmx.at 

Tuning: e B G D A e

Intro:
e|------------------------|
B|------------------------|
G|-4/9--------------------|
D|-x-x-------777777777777-|
A|-2/7-------555555555555-|
E|-----------555555555555-|

Verse:
e|------------------------------------------------------------------------------|
B|------------------------------------------------------------------------------|
G|------------------------------------------------------------------------------|
D|-99999999-77777777-55555555-44444444-99999999-1212121212777-55555555-44444777-|
A|-77777777-55555555-33333333-22222222-77777777-1010101010555-33333333-22222555-|
e|-77777777-55555555-33333333-22222222-77777777-1010101010555-33333333-22222555-|
    xxxx xx  xxxx xx  xxxx xx  xxxx xx  xxxx xx    x x x x xx  xxxx xx  xxxx xx

e|------------------------------------------------------------------------------|
B|------------------------------------------------------------------------------|
G|------------------------------------------------------------------------------|
D|-99999999-77777777-55555555-44444444-99999999-1212121212777-55555555-44444777-|
A|-77777777-55555555-33333333-22222222-77777777-1010101010555-33333333-22222555-|
e|-77777777-55555555-33333333-22222222-77777777-1010101010555-33333333-22222555-|

e|-----------|
B|-----------|
G|-----------|
D|-777888888-|
A|-555666666-|
e|-555666666-|

Chorus:
e|--------------------------------------------|
B|--------------------------------------------|
G|--------------------------------------------|
D|-99999999-1010101010101010----------777-444-|2x
A|-77777777-1010101010101010-22222222-555-222-|
E|-77777777--8-8-8-8-8-8-8-8-33333333-555-222-|

e|---------------------------------------------------------|
B|---------------------------------------------------------|
G|-99999999-12121212121212121212121212121212-141414-111111-|
D|-xxxxxxxx--x-x-x-x-x-x-x-x-x-x-x-x-x-x-x-x--x-x-x--x-x-x-|
A|-77777777-10101010101010101010101010101010-121212--9-9-9-|
E|---------------------------------------------------------|

e|--------------------------------------------------------------|
B|--------------------------------------------------------------|
G|-99999999-1212121212121212-1212-14-1616-14-1717-16-1414-16-9~-|
D|-xxxxxxxx--x-x-x-x-x-x-x-x--x-x--x--x-x--x--x-x--x--x-x--x-x--|
A|-77777777-1010101010101010-1010-12-1414-12-1515-14-1212-14-7~-|
E|--------------------------------------------------------------|

Verse:
e|------------------------------------------------------------------------------|
B|------------------------------------------------------------------------------|
G|------------------------------------------------------------------------------|
D|-99999999-77777777-55555555-44444444-99999999-1212121212777-55555555-44444777-|
A|-77777777-55555555-33333333-22222222-77777777-1010101010555-33333333-22222555-|
e|-77777777-55555555-33333333-22222222-77777777-1010101010555-33333333-22222555-|
    xxxx xx  xxxx xx  xxxx xx  xxxx xx  xxxx xx    x x x x xx  xxxx xx  xxxx xx

e|------------------------------------------------------------------------------|
B|------------------------------------------------------------------------------|
G|------------------------------------------------------------------------------|
D|-99999999-77777777-55555555-44444444-99999999-1212121212777-55555555-44444777-|
A|-77777777-55555555-33333333-22222222-77777777-1010101010555-33333333-22222555-|
e|-77777777-55555555-33333333-22222222-77777777-1010101010555-33333333-22222555-|

e|-----------|
B|-----------|
G|-----------|
D|-777888888-|
A|-555666666-|
e|-555666666-|
[ Tab from: http://www.guitartabs.cc/tabs/r/rise_against/the_unraveling_tab.html ]
Chorus:
e|--------------------------------------------|
B|--------------------------------------------|
G|--------------------------------------------|
D|-99999999-1010101010101010----------777-444-|2x
A|-77777777-1010101010101010-22222222-555-222-|
E|-77777777--8-8-8-8-8-8-8-8-33333333-555-222-|

e|---------------------------------------------------------|
B|---------------------------------------------------------|
G|-99999999-12121212121212121212121212121212-141414-111111-|
D|-xxxxxxxx--x-x-x-x-x-x-x-x-x-x-x-x-x-x-x-x--x-x-x--x-x-x-|
A|-77777777-10101010101010101010101010101010-121212--9-9-9-|
E|---------------------------------------------------------|

e|--------------------------------------------------------------|
B|--------------------------------------------------------------|
G|-99999999-1212121212121212-1212-14-1616-14-1717-16-1414-16-9~-|
D|-xxxxxxxx--x-x-x-x-x-x-x-x--x-x--x--x-x--x--x-x--x--x-x--x-x--|
A|-77777777-1010101010101010-1010-12-1414-12-1515-14-1212-14-7~-|
E|-----------------------------------------------------------7~-|

Solo:
e|---------------------------------------------------------------------------|
B|---------------------------------------------------------------------------|
G|----------------------------------------------------------------------4-2~-|
D|---------------------------2~-0-2-4~-2-4-5-4-2-4-0~---2-2-4-5-4-2-4-5------|
A|------------2-0~-2-3-5-3-5-------------------------2~----------------------|
E|-0~-2-3-2-0----------------------------------------------------------------|

e|----------------------------------------------------------------------------|
B|----------------------------------------------------------------------------|
G|-2-4-5-4-2-4----2-4----2-4-5p4h5p4h5p4h5p4h5p4h5p4h5p4h5p4h5p4h5p4h5p4h5p4\-|
D|-------------5~-----5~------------------------------------------------------|
A|----------------------------------------------------------------------------|
E|----------------------------------------------------------------------------|

Chorus:
e|--------------------------------------------|
B|--------------------------------------------|
G|--------------------------------------------|
D|-99999999-1010101010101010----------777-444-|2x
A|-77777777-1010101010101010-22222222-555-222-|
E|-77777777--8-8-8-8-8-8-8-8-33333333-555-222-|

e|---------------------------------------------------------|
B|---------------------------------------------------------|
G|-99999999-12121212121212121212121212121212-141414-111111-|
D|-xxxxxxxx--x-x-x-x-x-x-x-x-x-x-x-x-x-x-x-x--x-x-x--x-x-x-|
A|-77777777-10101010101010101010101010101010-121212--9-9-9-|
E|---------------------------------------------------------|

e|--------------------------------------------------------------|
B|--------------------------------------------------------------|
G|-99999999-1212121212121212-1212-14-1616-14-1717-16-1414-16-9~-|
D|-xxxxxxxx--x-x-x-x-x-x-x-x--x-x--x--x-x--x--x-x--x--x-x--x-x--|
A|-77777777-1010101010101010-1010-12-1414-12-1515-14-1212-14-7~-|
E|--------------------------------------------------------------|

e|---------------------------------------------------------|
B|---------------------------------------------------------|
G|-99999999-12121212121212121212121212121212-141414-111111-|
D|-xxxxxxxx--x-x-x-x-x-x-x-x-x-x-x-x-x-x-x-x--x-x-x--x-x-x-|
A|-77777777-10101010101010101010101010101010-121212--9-9-9-|
E|---------------------------------------------------------|

e|--------------------------------------------------------------|
B|--------------------------------------------------------------|
G|-99999999-1212121212121212-1212-14-1616-14-1717-16-1414-16-9~-|
D|-xxxxxxxx--x-x-x-x-x-x-x-x--x-x--x--x-x--x--x-x--x--x-x--x-x--|
A|-77777777-1010101010101010-1010-12-1414-12-1515-14-1212-14-7~-|
E|--------------------------------------------------------------|


| /  slide up
| \  slide down
| h  hammer-on
| p  pull-off
| ~  vibrato
| +  harmonic
| x  Mute note
===============================================================================
Comments