Rise Against - The Unraveling Chords & Tabs

 

The Unraveling Chords & Tabs

Rise Against Chords & Tabs

Version: 1 Type: Bass Tab 0 ratings
1 star 2 stars 3 stars 4 stars 5 stars
comments

The Unraveling Bass Tab

Band: Rise Against 
Song: The Unraveling
Tabbed By: Aaron Kunde

Intro
|-9-999-9-9-7-7-7-7---5-555-5-5-4-4-4-4---9-999-9-9-12-12-12-7---5-555-5-5-4-4-4-7-7-7-7-7-7-7-7-7-|
|-9-999-9-9-7-7-7-7---5-555-5-5-4-4-4-4---9-999-9-9-12-12-12-7---5-555-5-5-4-4-4-7-7-7-7-7-7-7-7-7-|
|--------------------------------------------------------------------------------------------------|
|--------------------------------------------------------------------------------------------------|


Verse 1
|----------------------------------------------------------------------------------------------------------------|
|----------------------------------------------------------------------------------------------------------------|
|-9-999-9-999-9-7-777-7-777-7-5-555-5-555-5-4-444-4-444-4---9-999-9-999-9-121212-777-5-555-5-555-5-4-444-4-444-4-|
|----------------------------------------------------------------------------------------------------------------|

|-----------------------------------------------------------------------------------------------|
|-----------------------------------------------------------------------------------------------|
|-9-9-9-9-9-9-7-7-7-7-7-7-5-5-5-5-5-5-4-4-4-4-4-4--9-9-9-9-9-9-12-12-12-7-7-7-5-5-5-5-5-5-4-4-4-|
|-----------------------------------------------------------------------------------------------|

|-------------------------|
|-------------------------|
|-7-7-7-7-7-7-8-8-8-8-8-8-|
|-------------------------|


Chorus 1
|--------------------------------------------------------------------------------------------|
|--------------------------------------------------------------------------------------------|
|------------5-5-5-5-5-5-----------7-7-7-------------------5-5-5-5-5-5-----------7-7-7-7-7-7-| 
|0-0-0-0-0-0------------5-5-5-5-5-5-----5-5-5--0-0-0-0-0-0------------5-5-5-5-5-5------------|

|-----------------------------------------------------------------------------------------------|
|-----------------------------------------------------------------------------------------------|
|-9-9-9-9-9-9-5-5-5-5-5-5-----------7-7-7-------------------5-5-5-5-5-5-----------7-7-7-7-7-7---| 
|------------------------5-5-5-5-5-5-----5-5-5--0-0-0-0-0-0------------5-5-5-5-5-5------------0-|


Rest, 1 & 2 & 3 & 4 &


Verse 2
|----------------------------------------------------------------------------------------------------------------|
|----------------------------------------------------------------------------------------------------------------|
|-9-999-9-999-9-7-777-7-777-7-5-555-5-555-5-4-444-4-444-4---9-999-9-999-9-121212-777-5-555-5-555-5-4-444-4-444-4-|
|----------------------------------------------------------------------------------------------------------------|

|-----------------------------------------------------------------------------------------------|
|-----------------------------------------------------------------------------------------------|
|-9-9-9-9-9-9-7-7-7-7-7-7-5-5-5-5-5-5-4-4-4-4-4-4--9-9-9-9-9-9-12-12-12-7-7-7-5-5-5-5-5-5-4-4-4-|
|-----------------------------------------------------------------------------------------------|

|-------------------------|
|-------------------------|
|-7-7-7-7-7-7-8-8-8-8-8-8-|
|-------------------------|

[ Tab from: http://www.guitartabs.cc/tabs/r/rise_against/the_unraveling_btab.html ]
Chorus 2
|---------------------------------------------------------------------------------------------|
|---------------------------------------------------------------------------------------------|
|-------------5-5-5-5-5-5-----------7-7-7-------------------5-5-5-5-5-5-----------7-7-7-7-7-7-| 
|-0-0-0-0-0-0------------5-5-5-5-5-5-----5-5-5--0-0-0-0-0-0------------5-5-5-5-5-5------------|

|----------------------------------------------------------------------------------------------|
|----------------------------------------------------------------------------------------------|
|-9-9-9-9-9-9-5-5-5-5-5-5-----------7-7-7-------------------5-5-5-5-5-5-----------7-7-7-7-7-7--| 
|------------------------5-5-5-5-5-5-----5-5-5--0-0-0-0-0-0------------5-5-5-5-5-5-------------|


Play right after the chorus and through the guitar solo,
|----------------------------------------------------------------------------------------------|
|----------------------------------------------------------------------------------------------|
|-----------------5-5-9-7-7-7-7-7-7-7-7-7-4-4-4-5-5-5-5-5-5-5-5-5-5-5-5-7-7-7-7-7-7------------|
|0-0-0-0-0-0-0-0-0-----------------------------------------------------------------3-333-2-222-|

|----------------------------------------------------------------------------------------------|
|----------------------------------------------------------------------------------------------|
|-----------------5-5-9-7-7-7-7-7-7-7-7-7-4-4-4-5-5-5-5-5-5-5-5-5-5-5-5-7-7-7-7-7-7------------|
|0-0-0-0-0-0-0-0-0-----------------------------------------------------------------3-333-2-222-|

|----------------------------------------------------------------------------------------------|
|----------------------------------------------------------------------------------------------|
|-----------------5-5-9-7-7-7-7-7-7-7-7-7-4-4-4-5-5-5-5-5-5-5-5-5-5-5-5-7-7-7-7-7-7------------|
|0-0-0-0-0-0-0-0-0-----------------------------------------------------------------3-333-2-222-|


Chorus 3
|--------------------------------------------------------------------------------------------|
|--------------------------------------------------------------------------------------------|
|------------5-5-5-5-5-5-----------7-7-7-------------------5-5-5-5-5-5-----------7-7-7-7-7-7-| 
|0-0-0-0-0-0------------5-5-5-5-5-5-----5-5-5--0-0-0-0-0-0------------5-5-5-5-5-5------------|

|----------------------------------------------------------------------------------------------|
|----------------------------------------------------------------------------------------------|
|-9-9-9-9-9-9-5-5-5-5-5-5-----------7-7-7-------------------5-5-5-5-5-5-----------7-7-7-7-7-7--| 
|------------------------5-5-5-5-5-5-----5-5-5--0-0-0-0-0-0------------5-5-5-5-5-5-------------|

|------------------------------------------------------------------------------------------------|
|------------------------------------------------------------------------------------------------|
|--------------5-555-5-555-----------7-777------------------5-555-5-555------------7-777-7-777-9-|
|-0-000-0-0000------------5-555-5-555-----5-555-0-000-0-000-------------5-555-5-555--------------|

I don't play bass, I just was bored one day and I figured it out. I belive there are no mistakes
but if you find one, Have fun figuring it out... Peace
Comments