Rise Against - Swing Life Away Chords & Tabs

 

Swing Life Away Chords & Tabs

Rise Against Chords & Tabs

Version: 9 Type: Tab 0 ratings
1 star 2 stars 3 stars 4 stars 5 stars
comments

Swing Life Away Tab

   
          Swing Life Away - Rise Against
There are a lot of tabs for this song out there but This one seems way clearer to me and
will definitely help out anyone who wants to learn this song. I've included the acoustic
solo which I'd like to say is perfect. Please rate this tab, whether you like it or
not... I'm trying to decide whether or not to keep tabbing. Any comments, email me at
riley_m15@hotmail.com, subject: "your tab" Thanks. ENJOY

                                                ~the Irishman, Riley Mulligan
*tune down  step*

CHORDS USED (please excuse my attempts at naming them  just use the names as a
reference to this chart. Sorry.)

Eb Eb-x   Gb Eb-x  Bsus  Eb-x  C#6  Eb-x  C#sus4 Eb-x-|
   Bb-0      Bb-3        Bb-3       Bb-3         Bb-3-|
   Gb-0      Gb-0        Gb-0       Gb-0         Gb-2-|
   Db-2      Db-0        Db-2       Db-4         Db-0-|
   Ab-2      Ab-2        Ab-3       Ab-5         Ab-x-|
   Eb-0      Eb-3        Eb-x       Eb-x         Eb-x-|

Intro


eb--------------------x-x-x-x-x-x-x-x-x--------]--x-x-x-x-x-x-x-x-----------|I
Bb---0----------------3-3-3-3-3-3-3-3-3--------]--3-3-3-3-3-3-3-3-----------|I
Gb-----0----2--0------0-0-0-0-0-0-0-0-0--------]--2-2-2-2-2-2-2-2-----------|I    {x3)
D -------0-------4----0-0-0-0-0-0-0-0-0--------]--0-0-0-0-0-0-0-0-----------|I
Ab--------------------3-3-3-3-3-3-3-3-3--------]----------------------------|I
Eb---0------3---------x-x-x-x-x-x-x-x-x--------]----------------------------|I


              Eb          Gb          Bsus
Am I loud and clear, or am I breaking up?
                Eb           Gb       Bsus
Am I still your charm, or am I just bad luck?
    Eb         Gb             Bsus                 C#6
Are we getting closer, or are we just getting more lost?


              Eb          Gb            Bsus
I'll show you mine if you show me yours first
              Eb          Gb           Bsus
Let's compare scars, I'll tell you whose is worse
      Eb            Gb          Bsus                    C#6
Let's unwrite these pages and replace them with our own words


   Eb            Gb          Bsus
We live on front porches and swing life away,
   Eb          Gb           Bsus    C#sus4
We get by just fine here on minimum wage
   Eb        Gb         Bsus
If love is a labor I'll slave till the end,
  Eb                Gb            Bsus        C#sus4
I won't cross these streets until you hold my hand


                  Eb                 Gb          Bsus
I've been here so long, I think that it's time to move
                Eb             Gb       Bsus
The winter's so cold, summer's over too soon
Eb             Gb       Bsus                         C#6
Let's pack our bags and settle down where palm trees grow

[ Tab from: http://www.guitartabs.cc/tabs/r/rise_against/swing_life_away_tab_ver_9.html ]
              Eb                 Gb       Bsus
I've got some friends, some that I hardly know
                   Eb                Gb            Bsus
But we've had some times, I wouldn't trade for the world
               Eb             Gb           Bsus                C#6
We chase these days down with talks of the places that we will go


   Eb            Gb          Bsus
We live on front porches and swing life away,
   Eb          Gb           Bsus    C#sus4
We get by just fine here on minimum wage
   Eb        Gb         Bsus
If love is a labor I'll slave till the end,
  Eb                Gb            Bsus       C#sus4      Bsus         C#sus4
I won't cross these streets until you hold my hand....til you hold my hand


SOLO:

e-x--x--x----x--x--x--0--x--0----x--x--x---0--x--0---x--x--x--0------x--x-x--I
B-0--1--3----3--3--3--1--3--1----3--3--3---1--3--1---3--3--3--0------3--3--3---|I
G-0--0--0----0--0--0--0--0--0----0--0--0---0--0--0---0--0--0--0----0-2--2--2---|I
D-2--2--2----0--0--0--2--2--2----0--0--0---2--2--2---0--0--0--2--4---0--0--0---|I
A-2--2--2----2--2--2--3--3--3----2--2--2---3--3--3---2--2--2--2----------------|I
E-0--0--0----x--x--x------------------------------------------0----------------|I

e-3--x--x--------------0--x--0-------------0--x--0-----------------------------|I
B-x--3--1---3--3--3----1--3--1---3--3--3---1--3--1---3--3--3-------------------|I
G-0--0--0---0--0--0----0--0--0---0--0--0---0--0--0---0--0--0-------------------|I
D-2--2--2---0--0--0----2--2--2---0--0--0---2--2--2---0--0--0-------------------|I
A-2--2--2---2--2--2----3--3--3---2--2--2---3--3--3---2--2--2-------------------|I
E-0--0--0---x--x--x------------------------------------------------------------|I


e----------------------------------------------------------------------------------------|I
B--1--1--1--1--1--1--1--1--1--1----------3--3--3--3--3--3--3--3--3-----------------------|I
G--2--2--2--0--0--0--2--2--2--0-----0----0--0--0--0--0--0--0--0--0-----------I-----------|{let ring)
D--2--2--2--2--2--2--2--2--2--2--4-------0--0--0--0--0--0--0--0--0-----------------------|I
A--0--0--0--0--0--0--0--0--0--0----------3--3--3--3--3--3--3--3--3-----------------------|I
E----------------------------------------------------------------------------------------|I
Throughout solo, attempt to put emphasis on strings 1,2 and 3 to pick out melody.


              Eb          Gb            Bsus
I'll show you mine if you show me yours first
              Eb          Gb          Bsus
Let's compare scars, I'll tell you whose is worse
      Eb            Gb          Bsus                    C#6
Let's unwrite these pages and replace them with our own words


   Eb            Gb          Bsus
We live on front porches and swing life away,
   Eb          Gb           Bsus    C#sus4
We get by just fine here on minimum wage
   Eb        Gb         Bsus
If love is a labor I'll slave till the end,
  Eb                Gb            Bsus        C#sus4
I won't cross these streets until you hold my hand

Eb    Gb   Bsus
Swing life away [x4]

just let the last chord ring then take your bow.   buy the cd and liusten to the song to
get the right strumming pattern and rythym etc. peace.
Comments