Rise Against - Swing Life Away Chords & Tabs

 

Swing Life Away Chords & Tabs

Rise Against Chords & Tabs

Version: 8 Type: Tab 0 ratings
1 star 2 stars 3 stars 4 stars 5 stars
comments

Swing Life Away Tab

   
-------------------------------------------------------------------------------
			     Swing Life Away - Rise Against
-------------------------------------------------------------------------------
Tabbed by: Mark Plummer
Email: happytreefriends_firstblood@hotmail.com

Tuning: I'm not sure to be honest cuz my guitar's in standard B tuning at the mo
        and it sounds near perfect in that but could be played in standard or
        something!

Ok some bits i've added myself, others I've borrowed from other tabs, but all
to make a correct one! I think this is correct, i played it with the song and it
sounded near enough perfect. I have no idea what the strumming patterns are, so i
had a wild guess, so you'll have to work it out for yourself, but atleast the chords
are there! Enjoi

Intro
Fill A
e|---------------------------------------------------------------------------|
B|---------------------------------------------------------------------------|
G|5-5-5-5-5------------------------------------------------------------------|
D|5-5-5-5-5------------------------------------------------------------------|
A|3-3-3-3-3------------------------------------------------------------------|
E|---------------------------------------------------------------------------|

Rhy. Fig. 1 (x3)          Then after that 3 times this
e|---------------------------------------------------------------------------|
B|-0-------------------------------------------------------------------------|
G|---0---2p0---55555555-------------------------------77777777-7-------------|
D|-----0-----0-55555555-------------------------------77777777-7-------------|
A|-------------33333333-------------------------------55555555-5-------------|
E|-0-----3-------------------------------------------------------------------|
[ Tab from: http://www.guitartabs.cc/tabs/r/rise_against/swing_life_away_tab_ver_8.html ]
Verse
Rhy. Fig. 2 (x2)
e|---------------------------------------------------------------------------|
B|---------------------------------------------------------------------------|
G|--------------5-555555---------------5-555555---------------5-555555-------|
D|2-2222-5-5555-5-555555-2-2222-5-5555-5-555555-2-2222-5-5555-5-555555-------|
A|2-2222-5-5555-3-333333-2-2222-5-5555-3-333333-2-2222-5-5555-3-333333-------|
E|0-0000-3-3333----------0-0000-3-3333----------0-0000-3-3333----------------|

              Second time round keep play the last more times
e|---------------------------------------------------------------------------|
B|---------------------------------------------------------------------------|
G|-7-777777-7----------------------------------------------------------------|
D|-7-777777-7----------------------------------------------------------------|
A|-5-555555-5----------------------------------------------------------------|
E|---------------------------------------------------------------------------|

Chorus
Rhy. Fig. 3 (x3)
e|---------------------------------------------------------------------------|
B|---------------------------------------------------------------------------|
G|------------------5555555555555555-----------------------------------------|
D|22222222-55555555-5555555555555555-----------------------------------------|
A|22222222-55555555-3333333333333333-----------------------------------------|
E|00000000-33333333----------------------------------------------------------|

Rhy. Fig. 4
e|---------------------------------------------------------------------------|
B|---------------------------------------------------------------------------|
G|------------------7777777777777777-----------------------------------------|
D|22222222-55555555-7777777777777777-----------------------------------------|
A|22222222-55555555-5555555555555555-----------------------------------------|
E|00000000-33333333----------------------------------------------------------|

Verse - Rhy. Fig. 1 (x2)
Chorus - Rhy. Fig. 3 (x3), Rhy. Fig. 4
Breakdown - Rhy. Fig. 3 (x3)

Ending
e|-------3-------------------------------------------------------------------|
B|-0-----3-------------------------------------------------------------------|
G|---0---4-------------------------------------------------------------------|
D|-----2-5-------------------------------------------------------------------|
A|-------5-------------------------------------------------------------------|
E|-0-----3-------------------------------------------------------------------|

| p  pull-off
Comments