Rise Against - Swing Life Away Chords & Tabs

 

Swing Life Away Chords & Tabs

Rise Against Chords & Tabs

Version: 5 Type: Tab 0 ratings
1 star 2 stars 3 stars 4 stars 5 stars
comments

Swing Life Away Tab

   
-------------------------------------------------------------------------------
			     SWING LIFE AWAY - Rise Against
-------------------------------------------------------------------------------
Tabbed by: Philippe LeSaux
Email: lessthanflip@snet.net

Tuning: Eb, Ab, Db, Gb, Bb, Eb

Guitar 1										3x
e|---------------------------------------------------------------------------|
B|-<12>--------------------<7>-----------------------------------------------|
G|------<12>----------<12>-----<7>-------------------------------------------|
D|-----------<12>-<7>--------------------------------------------------------|
A|---------------------------------------------------------------------------|
E|---------------------------------------------------------------------------|

Guitar 2										3x
e|---------------------------------------------------------------------------|
B|-0------------3-33333-3333-------------------------------------------------|
G|---0---2-0----0-00000-0000-------------------------------------------------|
D|-----0-----4--x-xxxxx-xxxx-------------------------------------------------|
A|--------------3-33333-3333-------------------------------------------------|
E|---------------------------------------------------------------------------|

Guitar 2
e|---------------------------------------------------------------------------|
B|--3-33333-33333-33333x-----------------------------------------------------|
G|--2-22222-22222-22222x-----------------------------------------------------|
D|--0-00000-00000-00000x-----------------------------------------------------|
A|--0-00000-00000-00000x-----------------------------------------------------|
E|---------------------------------------------------------------------------|

Verse				3x					Repeat this line
e|------------------------------|--------------------------------------------|
B|-:--------------------------:-|(3-33333-33333-33333)-----------------------|
G|---------------5-55555-5555---|-0-00000-00000-00000x-----------------------|
D|---2-22225-55555-55555-5555---|-4-44444-44444-44444x-----------------------|
A|-:-2-22225-55553-33333-3333-:-|-5-55555-55555-55555x-----------------------|
E|---0-00003-3333---------------|--------------------------------------------|
pm   .     .     .     .        .     .     .		Let up on pm 2nd time
[ Tab from: http://www.guitartabs.cc/tabs/r/rise_against/swing_life_away_tab_ver_5.html ]
Chorus
e|---0-0000------------------0-0000---------------------|--------------------|
B|-:-0-00003-33333-33333-33330-00003-33333-33333-3333-:-|-3-33333x-----------|
G|---x-xxxx0-00000-00002-2222x-xxxx0-00002-22222-2222---|-2-22222x-----------|
D|---2-22220-0000x-xxxx0-00002-22220-00000-00000-0000---|-0-00000x-----------|
A|-:-2-2222x-xxxx3-33330-00002-2222x-xxxx0-00000-0000-:-|-0-00000x-----------|
E|---0-00003-3333------------0-00003-3333---------------|--------------------|


Verse

Chorus (don't cut off last chord)


Bridge											2x
e|-0-00003-33333-33333-3333--------------------------------------------------|
B|-0-00003-33333-33333-3333--------------------------------------------------|
G|-x-xxxx0-00000-00000-0000--------------------------------------------------|
D|-2-22220-0000x-xxxxx-xxxx--------------------------------------------------|
A|-2-2222x-xxxx3-33333-3333--------------------------------------------------|
E|-0-00003-3333--------------------------------------------------------------|

e|-0-00003-33330-00003-3333--------------------------------------------------|
B|-0-00003-33331-11113-3333--------------------------------------------------|
G|-x-xxxx0-00002-22220-0000--------------------------------------------------|
D|-2-22220-00002-2222x-xxxx--------------------------------------------------|
A|-2-2222x-xxxx0-00003-3333--------------------------------------------------|
E|-0-00003-3333--------------------------------------------------------------|

e|-0-00003-33333-33333-33333-3333-------3------------------------------------|
B|-0-00003-33333-33333-33333-3333-0-----3------------------------------------|
G|-x-xxxx0-00000-00000-00000-0000---0---0------------------------------------|
D|-2-22220-0000x-xxxxx-xxxxx-xxxx-----0-0------------------------------------|
A|-2-2222x-xxxx3-33333-33333-3333-------x------------------------------------|
E|-0-00003-3333-------------------------3------------------------------------|


Yes, I am aware that the Am chord in the bridge is incorrect, but I can't seem to
find the correct chord. All I know is it's some form of A. The strumming is only an
approximate, I trust you can figure it out, as with dynamics. ;)


| /  slide up
| \  slide down
| h  hammer-on
| p  pull-off
| ~  vibrato
| +  harmonic
| x  mute note
| <> natural harmonic
===============================================================================
Comments