Rise Against - Swing Life Away Chords & Tabs

 

Swing Life Away Chords & Tabs

Rise Against Chords & Tabs

Version: 4 Type: Tab 0 ratings
1 star 2 stars 3 stars 4 stars 5 stars
comments

Swing Life Away Tab

~=ring   .= palm mute

Intro:
e--------------------------------------------------------|
b--------------------------------------------------------|
g-7------------3-----------------------------------------|
d-7-5-3-5-3-2--3~--X3------------------------------------|
a-5------------1-----------------------------------------|
e--------------------------------------------------------|

Verse 1:

e----------------------------------------------------------------|
b----------------------------------------------------------------|
g--7-7---7-7--5-5--5-5--3-3-3-3--3-3--3-3------------------------|
d--7-7---7-7--5-5--5-5--3-3-3-3--3-3--3-3------------------------|
a--5-5--------3-3-------1-1------1-1-----------------------------|
e----------------------------------------------------------------|
   ...        ...       ...      ...


Chours:
[ Tab from: http://www.guitartabs.cc/tabs/r/rise_against/swing_life_away_tab_ver_4.html ]
e------------------------------------------------|
b------------------------------------------------|
g--7----5---3---5--------------------------------|figure strumming pattern
d--7----5---3---5--------------------------------|
a--5----3---1---3--------------------------------|
e------------------------------------------------|


Verse 2:

e----------------------------------------------------------------|
b----------------------------------------------------------------|
g--7-7---7-7--5-5--5-5--3-3-3-3--3-3--3-3------------------------|
d--7-7---7-7--5-5--5-5--3-3-3-3--3-3--3-3------------------------|
a--5-5--------3-3-------1-1------1-1-----------------------------|
e----------------------------------------------------------------|
   ...        ...       ...      ...

Chours:

e------------------------------------------------|
b------------------------------------------------|
g--7----5---3---5--------------------------------|figure strumming pattern
d--7----5---3---5--------------------------------|
a--5----3---1---3--------------------------------|
e------------------------------------------------|


Outro:

e-------------------------------------------------|
b-------------------------------------------------|
g--7----5---3-------------------------------------|figure strumming pattern
d--7----5---3-------------------------------------|
a--5----3---1-------------------------------------|
e-------------------------------------------------|
  swing life away

thank you
Comments