Rise Against - Swing Life Away Chords & Tabs

 

Swing Life Away Chords & Tabs

Rise Against Chords & Tabs

Version: 1 Type: Tab 15 ratings
1 star 2 stars 3 stars 4 stars 5 stars
comments

Swing Life Away Tab

Intro: repeat 3 times

-----------------------------------------------------------------------------------------------
---------------------------3--3--3--3--3--3----------------------------------------------------
-----------0---------4-----2--2--2--2--2--2----------------------------------------------------
--------0------2--0----------------------------------------------------------------------------
-----0---------------------3--3--3--3--3--3----------------------------------------------------
-----------------------------------------------------------------------------------------------

Verse-"am i loud and clear"    play power chords
repeat 4 times
-----------------------------------------------------------------------------------------------
-------2---------3-3-----2------3-3------------------------------------------------------------
-------2---------2-2-----2------2-2------------------------------------------------------------
------------2---------------2-----------------------------------------------------------------
------------3----3-3--------3---3-3------------------------------------------------------------
------------2---------------2-----------------------------------------------------------------

chorus:"we live on front porches"  
repeat 4 times
----------------------------------------------------------------------------------------------
-------2--------3-----------------------------------------------------------------------------
-------2--------2-----------------------------------------------------------------------------
-----------2--------2-------------------------------------------------------------------------
-----------3----3---3-------------------------------------------------------------------------
-----------2--------2-------------------------------------------------------------------------

verse "ive been here so long"    
repeat 4 times

---------------------------------------------------------------------------------------------
---2--------3-3----2------3-3----------------------------------------------------------------
---2---2----2-2----2------2-2----------------------------------------------------------------
-------3---------------2---------------------------------------------------------------------
-------2----3-3--------3--3-3----------------------------------------------------------------
-----------------------2---------------------------------------------------------------------

Solo:
[ Tab from: http://www.guitartabs.cc/tabs/r/rise_against/swing_life_away_tab.html ]
---------------------------------------------------------------------------------------------
----2----------------2--------------------2--------------------------------3--3--3-----------
----2----------------2--------------------2--------------------------------2--2--2-----------
--------0---2--2--2------0--2--2--2--2---------0--2--2--2--2---2--2--2--2--------------------
------0-----3--1--0----0----0--1--3--3-------0----3--1--0--0---3--1--0--0--3--3--3-----------
---------------------------------------------------------------------------------------------

verse: "ill show you mine"

----------------------------------------------------------------------------------------------
---2-------3---2------3-----------------------------------------------------------------------
---2---0---2---2--0---2-----------------------------------------------------------------------
-------0----------0---------------------------------------------------------------------------
-------0----------0---------------------------------------------------------------------------
----------------------------------------------------------------------------------------------
verse: "lets unwrite these pages"
----------------------------------------------------------------------------------------------
---2--------3-3-3-3-3-3-3-3-3-3---------------------------------------------------------------
---2--------2-2-2-2-2-2-2-2-2-2---------------------------------------------------------------
-------2--------------------------------------------------------------------------------------
-------3----3-3-3-3-3-3-3-3-3-3---------------------------------------------------------------
-------2--------------------------------------------------------------------------------------

chorus:
repeat 4 times
---------------------------------------------------------------------------------------------
---2------3----------------------------------------------------------------------------------
---2------2----------------------------------------------------------------------------------
------2------2-------------------------------------------------------------------------------
------3---3--3-------------------------------------------------------------------------------
------2------2-------------------------------------------------------------------------------

ending:

------------------3---------------------------------------------------------------------------
------------------2---------------------------------------------------------------------------
-------------4---------------------------------------------------------------------------------
-------2--0-------------------------------------------------------------------------------------
----------------------------------------------------------------------------------------------
------------------3---------------------------------------------------------------------------
Comments