Rise Against - State Of The Union Chords & Tabs

 

State Of The Union Chords & Tabs

Rise Against Chords & Tabs

Version: 1 Type: Bass Tab 0 ratings
1 star 2 stars 3 stars 4 stars 5 stars
comments

State Of The Union Bass Tab

   
Band- Rise Against
Song- State Of The Union

TUNING: Half Step Down Eb Ab Db Gb


Intro
G-------------------------------------------------4444555566667777----|
D---------------------------------2222333344445555--------------------|
A-----------------2222333344445555------------------------------------|
E-0000111122223333------------------------------------------------0---|

G----------------------------------------------|
D----------------------------------------------|
A----77---------------77-----------------------|
E-000--5-333-5-555-000--5-333-5-53-0356530-0---|

G-------------------------------------------------------------|
D-------------------------------------------------------------|
A----77--------------77--------------77-----------------------|
E-000--5-333-5-53-000--5-333-5-55-000--5-333-5-53-0356530-0---|

Verse
G--------------------------------------------------------|
D--------------------------------------------------------|
A---------22253---------333-3-33---------22253-----------|
E-70---70-------70---70----------70---70-------70---70---|
[ Tab from: http://www.guitartabs.cc/tabs/r/rise_against/state_of_the_union_btab.html ]
Pre-chorus
G---------------------------------------|
D---------------------------------------|
A-333-3-33-333-3-33-333-3-33-555-5-55---|
E---------------------------------------|

Chorus
G-----------------------------------------------------------|
D-----------------------------------------------------------|
A----77--------------77--------------77---------------------| 2x
E-000--5-333-5-53-000--5-333-5-55-000--5-333-5-53-0356530---|

Verse
Pre-chorus
Chorus 2x

Bridge
G----------------------------------------------------------------------|
D----------------------------------------------------------------------|
A----------------------------------------------------------------------|
E-356530356530-3-0-0-00-60050030-3-0-0-00-60050030-3-0-0-00-60050030---|

G----------------------------------------------------------------|
D----------------------------------------------------------------|
A----------------------------------------------------------------| 2x
E-035653-3-0-0-00-60050030-3-0-0-00-60050030-3-0-0-00-60050030---|

Outro
G-----------------------|
D-----------------------|
A-----------------------|
E-0356530356530356530---|
Comments