Rise Against - Stained Glass And Marble Chords & Tabs

 

Stained Glass And Marble Chords & Tabs

Rise Against Chords & Tabs

Version: 1 Type: Tab 0 ratings
1 star 2 stars 3 stars 4 stars 5 stars
comments

Stained Glass And Marble Tab

Band- Rise Against
Song- Stained Glass And Marble

#=X3
*=X6

intro
---------------------|
-------------#--*--#-|
-------*--#-8--7--7--|
-10-8-7--3--8--7--7--| X2
-10-8-7--3--6--5--5--|
--8-6-5--1-----------|
[ Tab from: http://www.guitartabs.cc/tabs/r/rise_against/stained_glass_and_marble_tab.html ]
verse
--- -------------|
--- -------------|
--- ---*-----8-8-|
-8- -12--9-8-8-8-| X4
-8- -12--9-8-6-6-|
-6- -10--7-6-----|
2nd time,
chorus pause here
------------------------------------|-------------|
--#---#---#-------------------------|-------------|
-9--11--13---------*---*---#---#--#-|-------*---*-|
-x---x---x--8-10-12--12--12--10--8--|8-10-12--12--| X2
-7---9--11--8-10-12--12---x---x--x--|8-10-12--12--|
------------6--8-10--10--10---8--6--|6--8-10--10--|
^
verse |
|
chorus (2nd time without this part) -------|

bridge
------------------------------------------------------|
------------------------------------------------------|
--------*---*--------*---*--------*---*---------*---*-| X2
-8-10-12--12--8-10-12--12--8-10-13--13--15-15-12--12--|
-8-10-12--12--8-10-12--12--8-10-13--13--15-15-12--12--|
-6--8-10--10--6--8-10--10--6--8-11--11--13-13-10--10--|

intro (slower) X4

verse

end
-----------|
--#---#----|
-9--11--13-|
-x---x---x-|
-7---9--11-|
-----------|
Comments