Rise Against - Stained Glass And Marble Chords & Tabs

 

Stained Glass And Marble Chords & Tabs

Rise Against Chords & Tabs

Version: 1 Type: Bass Tab 0 ratings
1 star 2 stars 3 stars 4 stars 5 stars
comments

Stained Glass And Marble Bass Tab

Band- Rise Against
Song- Stained Glass And Marble

Tuning: Standard (EADG)

00:00
G|------------------------------------------------------------------------------------|
D|--------------------11-1-00-000-00--------------------11-1-00-000-00----------------|
A|-3-1--00-000-0---------------------3-1--00-000-0----------------------1-------------|
E|---------------11-1------------------------------11-1-------------------------------|

00:08
G|------------------------------------------------------------------------------------|
D|-0000000------1-11-0000000-----1-11-0000000-----1-11-0000000-----1-11---------------|
A|---------1-0---------------1-0--------------1-0--------------1-0--------------------|
E|------------------------------------------------------------------------------------|

00:18
G|-------------------------------------------------------------------------------------|
D|---1--00-000-000-000-----1--00-000-000-000------1-00-000-000-000-----1--0-000000-----|
A|-3---------------------3----------------------3--------------------3---------------1-|
E|-------------------------------------------------------------------------------------|

00:32
G|------------------------------------------------------------------------------------|
D|-0000000------1-11-0000000-----1-11-0000000-----1-11-0000000-----1-11---------------|
A|---------1-0---------------1-0--------------1-0--------------1-0--------------------|
E|------------------------------------------------------------------------------------|
[ Tab from: http://www.guitartabs.cc/tabs/r/rise_against/stained_glass_and_marble_btab.html ]
00:42
G|------------------------------------------------------------------------------------|
D|---1--00-000-000-000---1--00-000-000-000---1--00-000-000-000------------------------|
A|-3-------------------3-------------------3------------------------------------------|
E|------------------------------------------------------------------------------------|

00:54
G|------------------------------------------------------------------------------------|
D|---1--0-0-0-00---1--0-0-0-00---0--1-1-1-11-3-3--0-0-0-00----------------------------|
A|-3-------------3-------------3------------------------------------------------------|
E|------------------------------------------------------------------------------------|

01:02
G|------------------------------------------------------------------------------------|
D|---1--0-0-0-00---1--0-0-0-00---0--1-1-1-11-3-3--0-0-0-00----------------------------|
A|-3-------------3-------------3------------------------------------------------------|
E|------------------------------------------------------------------------------------|

01:10
G|-------------------------------------------------------------5577-77----------------|
D|-------------------1-1-0-0-0000-00-------------------1-1-0-0-0000-00----------------|
A|-3-1--0-0-000----------------------3-1--0-0-000-------------------------------------|
E|--------------1-11------------------------------1-11--------------------------------|

01:18
G|------------------------------------------------------------------------------------|
D|-------------------1-1-0-0-0000-00-------------------1-1----------------------------|
A|-3-1--0-0-000----------------------3-1--0-0-000-------------------------------------|
E|--------------1-11------------------------------1-11--------------------------------|

01:25
G|------------------------------------------------------------------------------------|
D|-0000000------1-11-0000000-----1-11-0000000-----1-11-0000000-----1-11---------------|
A|---------1-0---------------1-0--------------1-0--------------1-0--------------------|
E|------------------------------------------------------------------------------------|
Comments