Rise Against - Rumors Of My Demise Have Been Greatly Exaggerated Chords & Tabs

 

Rumors Of My Demise Have Been Greatly Exaggerated Chords & Tabs

Rise Against Chords & Tabs

Version: 2 Type: Tab 0 ratings
1 star 2 stars 3 stars 4 stars 5 stars
comments

Rumors Of My Demise Have Been Greatly Exaggerated Tab

Im not sure, but i thinkt itīs half step down...
Standard is ok, but the Sound is better by 1/2 down

1. Guitar Intro  

e-------------------------------------------------|
H-------------------------------------------------|
G-55-3-5-3---------------55-3-5-3-----------------| (2x)
D-55-3-5-3-33-3-3-66-6-6-55-3-5-3-33-3-3-66-6-6---|
A-33-1-3-1-33-3-3-66-6-6-33-5-3-5-33-3-3-66-6-6---|
E----------11-1-1-44-4-4----------11-1-1-44-4-4---|

2. Guitar

e-----------------------------------------|
H-----------------------------------------|
G--12--8--10-121312-8--10---121312--------|
D-----------------------------------------|
A--10--6---8—101110-6--8----101110--------|
E-----------------------------------------|

Verse
e-----------------------------------------------|
H-----------------------------------------------|
G-55-3-5----------------55-3-5------------------| (2x)
D-55-3-5--33-3-3-66-6-6-55-3-5--33-3-3-66-6-6---|
A-33-1-3--33-3-3-66-6-6-33-5-3--33-3-3-66-6-6---|
E---------11-1-1-44-4-4---------11-1-1-44-4-4---|
  xxxxxxxxxxxxxxxxxxxxxxxxxxxxxxxxxxxxxxxxxxxxx

Chorus (Part 1)

e----------------------------------------------------------|
H----------------------------------------------------------|
G--------------------------------------------------555555--|
D-666666-333333-666666-333333-666666-333333-666666-555555--|
A-666666-333333-666666-333333-666666-333333-666666-333333--|
E-444444-111111-444444-111111-444444-111111-444444---------|

Chorus (Part 2)

e-----------------------------------------|
H-----------------------------------------|
G----------55555555-77777777-33333333-----| (2x)
D-33333333-55555555-77777777-33333333-----|
A-33333333-33333333-55555555-11111111-----|
E-11111111--------------------------------|

Verse

e-----------------------------------------------|
H-----------------------------------------------|
G-55-3-5----------------55-3-5------------------| (2x)
D-55-3-5--33-3-3-66-6-6-55-3-5--33-3-3-66-6-6---|
A-33-1-3--33-3-3-66-6-6-33-5-3--33-3-3-66-6-6---|
E---------11-1-1-44-4-4---------11-1-1-44-4-4---|
  xxxxxxxxxxxxxxxxxxxxxxxxxxxxxxxxxxxxxxxxxxx

Chorus (Part1)
[ Tab from: http://www.guitartabs.cc/tabs/r/rise_against/rumors_of_my_demise_have_been_greatly_exaggerated_tab_ver_2.html ]
e----------------------------------------------------------|
H----------------------------------------------------------|
G--------------------------------------------------555555--|
D-666666-333333-666666-333333-666666-333333-666666-555555--|
A-666666-333333-666666-333333-666666-333333-666666-333333--|
E-444444-111111-444444-111111-444444-111111-444444---------|

Chorus (Part 2)

e-----------------------------------------|
H-----------------------------------------|
G----------55555555-77777777-33333333-----| (2x)
D-33333333-55555555-77777777-33333333-----|
A-33333333-33333333-55555555-11111111-----|
E-11111111--------------------------------|

Braek

e-----------------------------------------------------------|
H-----------------------------------------------------------|
G-----3h5p3h55555-(?x listen the Song)----------------------|
D-55--------------------------------------------------------| 
A-55--------------------------------------------------------|
E-33--------------------------------------------------------|
      x x x xxxxx

e-----------------------------------------------------------|
H-----------------------------------------------------------|
G-----------------------------------------------------------|
D-55---5-55---5-33---3-77---7-55---5-55---5-33---3-77-------| (2x)
A-55---5-55---5-33---3-77---7-55---5-55---5-33---3-77-------|
E-33---3-33---3-11---1-55---5-33---3-33---3-11---1-55-------|

e-------------------------------------------------------------------------|
H-------------------------------------------------------------------------|
G-------------------------------------------------------------------------| (2x)
D-5555555555555555-33333333-77777777-5555555555555555-33333333-77777777---| 
A-5555555555555555-33333333-77777777-5555555555555555-33333333-77777777---|
E-3333333333333333-11111111-55555555-3333333333333333-11111111-55555555---|

Chorus (Part1)

e----------------------------------------------------------|
H----------------------------------------------------------|
G--------------------------------------------------555555--|
D-666666-333333-666666-333333-666666-333333-666666-555555--|
A-666666-333333-666666-333333-666666-333333-666666-333333--|
E-444444-111111-444444-111111-444444-111111-444444---------|

Chorus (Part 2)

e-----------------------------------------|
H-----------------------------------------|
G----------55555555-77777777-33333333-----| (4x)
D-33333333-55555555-77777777-33333333-----|
A-33333333-33333333-55555555-11111111-----|
E-11111111--------------------------------|

Great Song!!!
Best Band ever!!!
Good Tab???
Rate please

Straith Edge Hardcore
Comments