Rise Against - Rumors Of My Demise Have Been Greatly Exaggerated Chords & Tabs

 

Rumors Of My Demise Have Been Greatly Exaggerated Chords & Tabs

Rise Against Chords & Tabs

Version: 1 Type: Tab 0 ratings
1 star 2 stars 3 stars 4 stars 5 stars
comments

Rumors Of My Demise Have Been Greatly Exaggerated Tab

   
Tabbed by:Tiz
Email: HA!
Song: rumors of my demise have been greatly exaggerated (intro)

Tuning: drop d

Main low theme
e|--------------------------------------------------------------------------|
B|--------------------------------------------------------------------------|
G|--------------------------------------------------------------------------|
D|----10-10-8h10p8/3--3-3-6-6-6-8-8-8---------------------------------------|
A|----10-10-8h10p8/3--3-3-6-6-6-8-8-8---------------------------------------|
E|----10-10-8h10p8/3--3-3-6-6-6-8-8-8---------------------------------------|
[ Tab from: http://www.guitartabs.cc/tabs/r/rise_against/rumors_of_my_demise_have_been_greatly_exaggerated_tab.html ]
High 2nd guitar thingy
e|--------------------------------------------------------------------------|
B|--------------------------------------------------------------------------|
G|--12--8--10-12/13/12-8--10---12/13/12-------------------------------------|
D|--------------------------------------------------------------------------|
A|--10--6---810/11/10-6--8----10/11/10-------------------------------------|
E|--------------------------------------------------------------------------|

The verse is derived from the main theme

| /  slide up
| \  slide down
| h  hammer-on
| p  pull-off
| ~  vibrato
| +  harmonic
| x  Mute note
=============================================================================
Comments