Rise Against - Reception Fades Chords & Tabs

 

Reception Fades Chords & Tabs

Rise Against Chords & Tabs

Version: 1 Type: Bass Tab 0 ratings
1 star 2 stars 3 stars 4 stars 5 stars
comments

Reception Fades Bass Tab

Band- Rise Against
Song- Reception Fades

G: --------------------------------------------------------------------------------------------------------|
D: --------------------------------------------------------------------------------------------------------|
A: -----------------------------------------------------(---------55555555---------------------------------|
E: 5555555555555555-7777-9999-7777-9999-5555555555555555(-77777777--------) (cut out second time of intro--|
[ Tab from: http://www.guitartabs.cc/tabs/r/rise_against/reception_fades_btab.html ]
  Verse
G: -------------------------------|
D: -------------------------------|
A: --------------3333----55555555-|
E: 55-3-2--55-3-2----5555---------|

  Chorus
G: -------------------------------------------------3-|
D: -----------------75-73-----------------97-95-75-3--|
A: 33333333-55555555-----55555555-77777777------------|
E: ---------------------------------------------------|

  Bridge
G: ------------|
D: ------------|
A: -5555-7-----|
E: 7------5555-|

  Ending
G: ----------|
D: ----------|
A: ------5---|
E: 55-77---7-|

  Order:
Intro: 2x
Verse: 2x
Chorus: 2x
Verse: 2x
Chorus: 2x
Pause for three guitar riffs
Bridge: 9x
Ending: 1x
Comments