Rise Against - My Life Inside Your Heart Chords & Tabs

 

My Life Inside Your Heart Chords & Tabs

Rise Against Chords & Tabs

Version: 1 Type: Tab 0 ratings
1 star 2 stars 3 stars 4 stars 5 stars
comments

My Life Inside Your Heart Tab

   
tabbed by: bung

i saw these guys at the warped tour and it inspired me to tab this song.

Intro
e:--------------------------------------------------|
b:--------------------------------------------------|
g:--------------------------------------------------|
D:---5-4----4------2------4---4-- x4 --2r-----------|
A:-7------2---2--3---3--5---5----------2r-----------|
E:-------------------------------------0r-----------|

Verse
e:----------------------------------|
b:----------------------------------|
g:----------------------------------|
D:-22222222--------5555555----------|
A:-22222222-222333-5555555-222333---|
E:-00000000--------3333333----------|

[ Tab from: http://www.guitartabs.cc/tabs/r/rise_against/my_life_inside_your_heart_tab.html ]
e:------------| e:-----------------|
b:------------| b:-----------------|
g:-12-11-9-9--| g:-12-11-9-11-9-12-|
D:-X--X--X-X--| D:-X--X--X-X--X-X--|
A:-10-9--7-7--| A:-10-9--7-9--7-10-|
E:------------| E:-----------------|

e:----------------------|
b:----------------------|  PALM MUTE
g:----------------------|
D:-222------------------|
A:-222-2223335533335555-|
E:-000------------------|
*


2nd
e:-------| e:----------|
b:-------| b:----------|
g:-12-11-| g:-12-11-9r-|
D:-X---X-| D:-X---X-Xr-|
A:-10--9-| A:-10--9-7r-|
E:-------| E:----------|

Verse and Chorus again

e:----------------------|
b:----------------------|
g:-7-11-9-8/9-8/9--7-11-|
D:-X-X--X-X-X-X-X--X-X--|
A:-5-9--7-6/7-6/7--5-9--|
E:----------------------|

e:------------|
b:------------|
g:-9-11-12-14-|
D:-X-X--X--X--|
A:-7-9--10-12-|
E:------------|
***********

e:---------|
b:---------|
g:---------|
D:-2-4-5-7-|
A:-2-4-5-7-|
E:-0-2-3-5-|
Comments