Rise Against - Like The Angel Chords & Tabs

 

Like The Angel Chords & Tabs

Rise Against Chords & Tabs

Version: 6 Type: Tab 0 ratings
1 star 2 stars 3 stars 4 stars 5 stars
comments

Like The Angel Tab

Like the Angel                                  


                                                                    Rise Against
Mohney/McIIrath (Guitar)
Standard Tuning

x=Palm Muting

                                                                               
E||------------------|------------------|------------------|------------------|
B||------------------|------------------|------------------|------------------|
G||------------------|------------------|------------------|------------------|
D||------------------|------------------|------------------|------------------|
A||------------------|------------------|------------------|------------------|
E||------------------|------------------|------------------|------------------|


                                                                             
------------------|------------------|------------------|-------------------|
------------------|------------------|------------------|-------------------|
------------------|------------------|------------------|-------------------|
------------------|------------------|------------------|-------------------|
------------------|------------------|------------------|--4----------------|
------------------|------------------|------------------|--6----------------|


                                                                              
-------------------------|-------------------------|-------------------------|
-------------------------|-------------------------|-------------------------|
-------x--x--x--x--x--x--|-------x--x--x--x--x--x--|-------x--x--x--x--x--x--|
-------x--x--x--x--x--x--|-------x--x--x--x--x--x--|-------x--x--x--x--x--x--|
--4----4--4--4--4--4--4--|--6----6--6--6--6--6--6--|--8----8--8--8--8--8--8--|
--6----6--6--6--6--6--6--|--4----4--4--4--4--4--4--|--9----9--9--9--9--9--9--|


                                                                              
-------------------------|-------------------------|-------------------------|
-------------------------|-------------------------|-------------------------|
-------x--x--x--x--x--x--|-------x--x--x--x--x--x--|-------x--x--x--x--x--x--|
-------x--x--x--x--x--x--|-------x--x--x--x--x--x--|-------x--x--x--x--x--x--|
--9----9--9--9--9--9--9--|--8----8--8--8--8--8--8--|--6----6--6--6--6--6--6--|
--9----9--9--9--9--9--9--|--9----9--9--9--9--9--9--|--8----8--8--8--8--8--8--|


                                                                               
-------------------------|--------------------------|-------------------------|
-------------------------|--------------------------|-------------------------|
-------x--x--x--x--x--x--|--x--x--x--x--x--x--x--x--|-------x--x--x--x--x--x--|
-------x--x--x--x--x--x--|--x--x--x--x--x--x--x--x--|-------x--x--x--x--x--x--|
--8----8--8--8--8--8--8--|--8--8--8--8--8--8--8--8--|--4----4--4--4--4--4--4--|
--6----6--6--6--6--6--6--|--6--6--6--6--6--6--6--6--|--6----6--6--6--6--6--6--|


                                                                              
-------------------------|-------------------------|-------------------------|
-------------------------|-------------------------|-------------------------|
-------x--x--x--x--x--x--|-------x--x--x--x--x--x--|-------x--x--x--x--x--x--|
-------x--x--x--x--x--x--|-------x--x--x--x--x--x--|-------x--x--x--x--x--x--|
--6----6--6--6--6--6--6--|--8----8--8--8--8--8--8--|--9----9--9--9--9--9--9--|
--4----4--4--4--4--4--4--|--9----9--9--9--9--9--9--|--9----9--9--9--9--9--9--|


                                                                              
-------------------------|-------------------------|-------------------------|
-------------------------|-------------------------|-------------------------|
-------x--x--x--x--x--x--|-------x--x--x--x--x--x--|-------x--x--x--x--x--x--|
-------x--x--x--x--x--x--|-------x--x--x--x--x--x--|-------x--x--x--x--x--x--|
--8----8--8--8--8--8--8--|--6----6--6--6--6--6--6--|--8----8--8--8--8--8--8--|
--9----9--9--9--9--9--9--|--8----8--8--8--8--8--8--|--6----6--6--6--6--6--6--|


                                                      
--------------------------|--------------------------|
--------------------------|--------------------------|
--------------------------|--6--6--6--6--6--6--6--6--|
--------------------------|--------------------------|
--8--8--8--8--8--8--8--8--|--4--4--4--4--4--4--4--4--|
--6--6--6--6--6--6--6--6--|--------------------------|


                                                                               
--------------------------|--------------------------|------------------------|
--------------------------|--------------------------|------------------------|
--6--6--6--6--6--6--6--6--|--6--6--6--6--6--6--6--6--|------------------------|
--------------------------|--------------------------|--8----8--8--6----6--6--|
--4--4--4--4--4--4--4--4--|--4--4--4--4--4--4--4--4--|--8----8--8--6----6--6--|
--------------------------|--------------------------|--6----6--6--4----4--4--|


                                                                              
-------------------------|-------------------------|-------------------------|
-------------------------|-------------------------|-------------------------|
-------------------------|-------------------------|-------------------------|
--4----4--4--4--4--4--4--|--6----6--6--6--6--6--6--|--8----8--8--8--8--8--8--|
--4----4--4--4--4--4--4--|--6----6--6--6--6--6--6--|--8----8--8--8--8--8--8--|
--2----2--2--2--2--2--2--|--4----4--4--4--4--4--4--|--6----6--6--6--6--6--6--|


                                                                               
--------------------------|-------------------------|-------------------------|
--------------------------|-------------------------|-------------------------|
--------------------------|-------------------------|-------------------------|
--8--8--8--8--8--8--8--8--|--4----4--4--4--4--4--4--|--6----6--6--6--6--6--6--|
--8--8--8--8--8--8--8--8--|--4----4--4--4--4--4--4--|--6----6--6--6--6--6--6--|
--6--6--6--6--6--6--6--6--|--2----2--2--2--2--2--2--|--4----4--4--4--4--4--4--|


                                                                               
-------------------------|--------------------------|-------------------------|
-------------------------|--------------------------|-------------------------|
-------------------------|--------------------------|-------------------------|
--8----8--8--8--8--8--8--|--8--8--8--8--8--8--8--8--|--4----4--4--4--4--4--4--|
--8----8--8--8--8--8--8--|--8--8--8--8--8--8--8--8--|--4----4--4--4--4--4--4--|
--6----6--6--6--6--6--6--|--6--6--6--6--6--6--6--6--|--2----2--2--2--2--2--2--|


                                                                               
-------------------------|-------------------------|--------------------------|
-------------------------|-------------------------|--------------------------|
-------------------------|-------------------------|--------------------------|
--6----6--6--6--6--6--6--|--8----8--8--8--8--8--8--|--8--8--8--8--8--8--8--8--|
--6----6--6--6--6--6--6--|--8----8--8--8--8--8--8--|--8--8--8--8--8--8--8--8--|
--4----4--4--4--4--4--4--|--6----6--6--6--6--6--6--|--6--6--6--6--6--6--6--6--|


                                                                              
-------------------------|-------------------------|-------------------------|
-------------------------|-------------------------|-------------------------|
-------x--x--x--x--x--x--|-------x--x--x--x--x--x--|-------x--x--x--x--x--x--|
-------x--x--x--x--x--x--|-------x--x--x--x--x--x--|-------x--x--x--x--x--x--|
--4----4--4--4--4--4--4--|--6----6--6--6--6--6--6--|--8----8--8--8--8--8--8--|
--6----6--6--6--6--6--6--|--4----4--4--4--4--4--4--|--9----9--9--9--9--9--9--|


                                                                              
-------------------------|-------------------------|-------------------------|
-------------------------|-------------------------|-------------------------|
-------x--x--x--x--x--x--|-------x--x--x--x--x--x--|-------x--x--x--x--x--x--|
-------x--x--x--x--x--x--|-------x--x--x--x--x--x--|-------x--x--x--x--x--x--|
--9----9--9--9--9--9--9--|--8----8--8--8--8--8--8--|--6----6--6--6--6--6--6--|
--9----9--9--9--9--9--9--|--9----9--9--9--9--9--9--|--8----8--8--8--8--8--8--|


                                                                               
-------------------------|--------------------------|-------------------------|
-------------------------|--------------------------|-------------------------|
-------x--x--x--x--x--x--|--x--x--x--x--x--x--x--x--|-------x--x--x--x--x--x--|
-------x--x--x--x--x--x--|--x--x--x--x--x--x--x--x--|-------x--x--x--x--x--x--|
--8----8--8--8--8--8--8--|--8--8--8--8--8--8--8--8--|--4----4--4--4--4--4--4--|
--6----6--6--6--6--6--6--|--6--6--6--6--6--6--6--6--|--6----6--6--6--6--6--6--|


                                                                              
-------------------------|-------------------------|-------------------------|
-------------------------|-------------------------|-------------------------|
-------x--x--x--x--x--x--|-------x--x--x--x--x--x--|-------x--x--x--x--x--x--|
-------x--x--x--x--x--x--|-------x--x--x--x--x--x--|-------x--x--x--x--x--x--|
--6----6--6--6--6--6--6--|--8----8--8--8--8--8--8--|--9----9--9--9--9--9--9--|
--4----4--4--4--4--4--4--|--9----9--9--9--9--9--9--|--9----9--9--9--9--9--9--|


                                                                              
-------------------------|-------------------------|-------------------------|
-------------------------|-------------------------|-------------------------|
-------x--x--x--x--x--x--|-------x--x--x--x--x--x--|-------x--x--x--x--x--x--|
-------x--x--x--x--x--x--|-------x--x--x--x--x--x--|-------x--x--x--x--x--x--|
--8----8--8--8--8--8--8--|--6----6--6--6--6--6--6--|--8----8--8--8--8--8--8--|
--9----9--9--9--9--9--9--|--8----8--8--8--8--8--8--|--6----6--6--6--6--6--6--|


                                                      
--------------------------|--------------------------|
--------------------------|--------------------------|
--------------------------|--6--6--6--6--6--6--6--6--|
--------------------------|--------------------------|
--8--8--8--8--8--8--8--8--|--4--4--4--4--4--4--4--4--|
--6--6--6--6--6--6--6--6--|--------------------------|


                                                                               
--------------------------|--------------------------|------------------------|
--------------------------|--------------------------|------------------------|
--6--6--6--6--6--6--6--6--|--6--6--6--6--6--6--6--6--|------------------------|
--------------------------|--------------------------|--8----8--8--6----6--6--|
--4--4--4--4--4--4--4--4--|--4--4--4--4--4--4--4--4--|--8----8--8--6----6--6--|
--------------------------|--------------------------|--6----6--6--4----4--4--|


                                                                              
-------------------------|-------------------------|-------------------------|
-------------------------|-------------------------|-------------------------|
-------------------------|-------------------------|-------------------------|
--4----4--4--4--4--4--4--|--6----6--6--6--6--6--6--|--8----8--8--8--8--8--8--|
--4----4--4--4--4--4--4--|--6----6--6--6--6--6--6--|--8----8--8--8--8--8--8--|
--2----2--2--2--2--2--2--|--4----4--4--4--4--4--4--|--6----6--6--6--6--6--6--|


                                                                               
--------------------------|-------------------------|-------------------------|
--------------------------|-------------------------|-------------------------|
--------------------------|-------------------------|-------------------------|
--8--8--8--8--8--8--8--8--|--4----4--4--4--4--4--4--|--6----6--6--6--6--6--6--|
--8--8--8--8--8--8--8--8--|--4----4--4--4--4--4--4--|--6----6--6--6--6--6--6--|
--6--6--6--6--6--6--6--6--|--2----2--2--2--2--2--2--|--4----4--4--4--4--4--4--|


                                                                               
-------------------------|--------------------------|-------------------------|
-------------------------|--------------------------|-------------------------|
-------------------------|--------------------------|-------------------------|
--8----8--8--8--8--8--8--|--8--8--8--8--8--8--8--8--|--4----4--4--4--4--4--4--|
--8----8--8--8--8--8--8--|--8--8--8--8--8--8--8--8--|--4----4--4--4--4--4--4--|
--6----6--6--6--6--6--6--|--6--6--6--6--6--6--6--6--|--2----2--2--2--2--2--2--|


                                                                               
-------------------------|-------------------------|--------------------------|
-------------------------|-------------------------|--------------------------|
-------------------------|-------------------------|--------------------------|
--6----6--6--6--6--6--6--|--8----8--8--8--8--8--8--|--8--8--8--8--8--8--8--8--|
--6----6--6--6--6--6--6--|--8----8--8--8--8--8--8--|--8--8--8--8--8--8--8--8--|
--4----4--4--4--4--4--4--|--6----6--6--6--6--6--6--|--6--6--6--6--6--6--6--6--|


                                                                         
------------------------|----------------------|------------------------|
------------------------|----------------------|------------------------|
------------------------|----------------------|--6----6----6--6--6-----|
--8----8----8--8--8--4--|----4--4----4----4----|--6----6----6--6--6--6--|
--8----8----8--8--8--4--|----4--4----4----4----|--4----4----4--4--4--6--|
--6----6----6--6--6--2--|----2--2----2----2----|---------------------4--|


                                                                       
----------------------|------------------------|----------------------|
----------------------|------------------------|----------------------|
----------------------|------------------------|----------------------|
----6--6----6----6----|--8----8----8--8--8--4--|----4--4----4----4----|
----6--6----6----6----|--8----8----8--8--8--4--|----4--4----4----4----|
----4--4----4----4----|--6----6----6--6--6--2--|----2--2----2----2----|


                                                                               
--------------------------|--------------------------|------------------------|
--------------------------|--------------------------|------------------------|
--------------------------|--------------------------|------------------------|
--6--6--6--6--6--6--6--6--|--6--6--6--6--6--6--6--6--|--8----8----8--8--8--4--|
--6--6--6--6--6--6--6--6--|--6--6--6--6--6--6--6--6--|--8----8----8--8--8--4--|
--4--4--4--4--4--4--4--4--|--4--4--4--4--4--4--4--4--|--6----6----6--6--6--2--|


                                                                       
----------------------|------------------------|----------------------|
----------------------|------------------------|----------------------|
----------------------|--6----6----6--6--6-----|----------------------|
----4--4----4----4----|--6----6----6--6--6--6--|----6--6----6----6----|
----4--4----4----4----|--4----4----4--4--4--6--|----6--6----6----6----|
----2--2----2----2----|---------------------4--|----4--4----4----4----|


                                                                           
------------------------|----------------------|--------------------------|
------------------------|----------------------|--------------------------|
------------------------|----------------------|--------------------------|
--8----8----8--8--8--4--|----4--4----4----4----|--6--6--6--6--6--6--6--6--|
--8----8----8--8--8--4--|----4--4----4----4----|--6--6--6--6--6--6--6--6--|
--6----6----6--6--6--2--|----2--2----2----2----|--4--4--4--4--4--4--4--4--|


                                                                   
--------------------------|-------------------|-------------------|
--------------------------|-------------------|-------------------|
--------------------------|-------------------|-------------------|
--6--6--6--6--6--6--6--6--|-------------------|-------------------|
--6--6--6--6--6--6--6--6--|--4----------------|--6----------------|
--4--4--4--4--4--4--4--4--|--6----------------|--4----------------|


                                                                                
-------------------|-------------------|-------------------|-------------------|
-------------------|-------------------|-------------------|-------------------|
-------------------|-------------------|-------------------|-------------------|
-------------------|-------------------|-------------------|-------------------|
--8----------------|--9----------------|--8----------------|--6----------------|
--9----------------|--9----------------|--9----------------|--8----------------|


                                                                               
-------------------|------------------|-------------------|-------------------|
-------------------|------------------|-------------------|-------------------|
-------------------|------------------|-------------------|-------------------|
-------------------|------------------|-------------------|-------------------|
--8----------------|------------------|--4----------------|--6----------------|
--6----------------|------------------|--6----------------|--4----------------|


                                                                                
-------------------|-------------------|-------------------|-------------------|
-------------------|-------------------|-------------------|-------------------|
-------------------|-------------------|-------------------|-------------------|
-------------------|-------------------|-------------------|-------------------|
--8----------------|--9----------------|--8----------------|--6----------------|
--9----------------|--9----------------|--9----------------|--8----------------|


                                                                  
-------------------|------------------|--------------------------|
-------------------|------------------|--------------------------|
-------------------|------------------|--6--6--6--6--6--6--6--6--|
-------------------|------------------|--------------------------|
--8----------------|------------------|--4--4--4--4--4--4--4--4--|
--6----------------|------------------|--------------------------|


                                                                               
--------------------------|--------------------------|------------------------|
--------------------------|--------------------------|------------------------|
--6--6--6--6--6--6--6--6--|--6--6--6--6--6--6--6--6--|------------------------|
--------------------------|--------------------------|--8----8--8--6----6--6--|
--4--4--4--4--4--4--4--4--|--4--4--4--4--4--4--4--4--|--8----8--8--6----6--6--|
--------------------------|--------------------------|--6----6--6--4----4--4--|


                                                                              
-------------------------|-------------------------|-------------------------|
-------------------------|-------------------------|-------------------------|
-------------------------|-------------------------|-------------------------|
--4----4--4--4--4--4--4--|--6----6--6--6--6--6--6--|--8----8--8--8--8--8--8--|
--4----4--4--4--4--4--4--|--6----6--6--6--6--6--6--|--8----8--8--8--8--8--8--|
--2----2--2--2--2--2--2--|--4----4--4--4--4--4--4--|--6----6--6--6--6--6--6--|


                                                                               
--------------------------|-------------------------|-------------------------|
--------------------------|-------------------------|-------------------------|
--------------------------|-------------------------|-------------------------|
--8--8--8--8--8--8--8--8--|--4----4--4--4--4--4--4--|--6----6--6--6--6--6--6--|
--8--8--8--8--8--8--8--8--|--4----4--4--4--4--4--4--|--6----6--6--6--6--6--6--|
--6--6--6--6--6--6--6--6--|--2----2--2--2--2--2--2--|--4----4--4--4--4--4--4--|


                                                                               
-------------------------|--------------------------|-------------------------|
-------------------------|--------------------------|-------------------------|
-------------------------|--------------------------|-------------------------|
--8----8--8--8--8--8--8--|--8--8--8--8--8--8--8--8--|--4----4--4--4--4--4--4--|
--8----8--8--8--8--8--8--|--8--8--8--8--8--8--8--8--|--4----4--4--4--4--4--4--|
--6----6--6--6--6--6--6--|--6--6--6--6--6--6--6--6--|--2----2--2--2--2--2--2--|


                                                                               
-------------------------|-------------------------|--------------------------|
-------------------------|-------------------------|--------------------------|
-------------------------|-------------------------|--------------------------|
--6----6--6--6--6--6--6--|--8----8--8--8--8--8--8--|--8--8--8--8--8--8--8--8--|
--6----6--6--6--6--6--6--|--8----8--8--8--8--8--8--|--8--8--8--8--8--8--8--8--|
--4----4--4--4--4--4--4--|--6----6--6--6--6--6--6--|--6--6--6--6--6--6--6--6--|


                                                                             
-------------------|------------------|------------------|------------------|
-------------------|------------------|------------------|------------------|
-------------------|------------------|------------------|------------------|
-------------------|------------------|------------------|------------------|
--4----------------|------------------|------------------|------------------|
--6----------------|------------------|------------------|------------------|


                                                                            
------------------|------------------|------------------|------------------|
------------------|------------------|------------------|------------------|
------------------|------------------|------------------|------------------|
------------------|------------------|------------------|------------------|
------------------|------------------|------------------|------------------|
------------------|------------------|------------------|------------------|


                                       
------------------|------------------||
------------------|------------------||
------------------|------------------||
------------------|------------------||
------------------|------------------||
------------------|------------------||

Todd Mohney (Lead Guitar)
Standard Tuning



                                                                               
E||------------------|------------------|------------------|------------------|
B||------------------|------------------|------------------|------------------|
G||------------------|------------------|------------------|------------------|
D||------------------|------------------|------------------|------------------|
A||------------------|------------------|------------------|------------------|
E||------------------|------------------|------------------|------------------|


                                                                             
------------------|------------------|------------------|-------------------|
------------------|------------------|------------------|-------------------|
------------------|------------------|------------------|-------------------|
------------------|------------------|------------------|-------------------|
------------------|------------------|------------------|--4----------------|
------------------|------------------|------------------|--6----------------|


                                                                              
-------------------------|-------------------------|-------------------------|
-------------------------|-------------------------|-------------------------|
-------x--x--x--x--x--x--|-------x--x--x--x--x--x--|-------x--x--x--x--x--x--|
-------x--x--x--x--x--x--|-------x--x--x--x--x--x--|-------x--x--x--x--x--x--|
--4----4--4--4--4--4--4--|--6----6--6--6--6--6--6--|--8----8--8--8--8--8--8--|
--6----6--6--6--6--6--6--|--4----4--4--4--4--4--4--|--9----9--9--9--9--9--9--|


                                                                              
-------------------------|-------------------------|-------------------------|
-------------------------|-------------------------|-------------------------|
-------x--x--x--x--x--x--|-------x--x--x--x--x--x--|-------x--x--x--x--x--x--|
-------x--x--x--x--x--x--|-------x--x--x--x--x--x--|-------x--x--x--x--x--x--|
--9----9--9--9--9--9--9--|--8----8--8--8--8--8--8--|--6----6--6--6--6--6--6--|
--9----9--9--9--9--9--9--|--9----9--9--9--9--9--9--|--8----8--8--8--8--8--8--|


                                                                               
-------------------------|--------------------------|-------------------------|
-------------------------|--------------------------|-------------------------|
-------x--x--x--x--x--x--|--x--x--x--x--x--x--x--x--|-------x--x--x--x--x--x--|
-------x--x--x--x--x--x--|--x--x--x--x--x--x--x--x--|-------x--x--x--x--x--x--|
--8----8--8--8--8--8--8--|--8--8--8--8--8--8--8--8--|--4----4--4--4--4--4--4--|
--6----6--6--6--6--6--6--|--6--6--6--6--6--6--6--6--|--6----6--6--6--6--6--6--|


                                                                              
-------------------------|-------------------------|-------------------------|
-------------------------|-------------------------|-------------------------|
-------x--x--x--x--x--x--|-------x--x--x--x--x--x--|-------x--x--x--x--x--x--|
-------x--x--x--x--x--x--|-------x--x--x--x--x--x--|-------x--x--x--x--x--x--|
--6----6--6--6--6--6--6--|--8----8--8--8--8--8--8--|--9----9--9--9--9--9--9--|
--4----4--4--4--4--4--4--|--9----9--9--9--9--9--9--|--9----9--9--9--9--9--9--|


                                                                              
-------------------------|-------------------------|-------------------------|
-------------------------|-------------------------|-------------------------|
-------x--x--x--x--x--x--|-------x--x--x--x--x--x--|-------x--x--x--x--x--x--|
-------x--x--x--x--x--x--|-------x--x--x--x--x--x--|-------x--x--x--x--x--x--|
--8----8--8--8--8--8--8--|--6----6--6--6--6--6--6--|--8----8--8--8--8--8--8--|
--9----9--9--9--9--9--9--|--8----8--8--8--8--8--8--|--6----6--6--6--6--6--6--|


                                                      
--------------------------|--------------------------|
--------------------------|--------------------------|
--------------------------|--6--6--6--6--6--6--6--6--|
--------------------------|--------------------------|
--8--8--8--8--8--8--8--8--|--4--4--4--4--4--4--4--4--|
--6--6--6--6--6--6--6--6--|--------------------------|


                                                                               
--------------------------|--------------------------|------------------------|
--------------------------|--------------------------|------------------------|
--6--6--6--6--6--6--6--6--|--6--6--6--6--6--6--6--6--|------------------------|
--------------------------|--------------------------|--8----8--8--6----6--6--|
--4--4--4--4--4--4--4--4--|--4--4--4--4--4--4--4--4--|--8----8--8--6----6--6--|
--------------------------|--------------------------|--6----6--6--4----4--4--|


                                                                              
-------------------------|-------------------------|-------------------------|
-------------------------|-------------------------|-------------------------|
-------------------------|-------------------------|-------------------------|
--4----4--4--4--4--4--4--|--6----6--6--6--6--6--6--|--8----8--8--8--8--8--8--|
--4----4--4--4--4--4--4--|--6----6--6--6--6--6--6--|--8----8--8--8--8--8--8--|
--2----2--2--2--2--2--2--|--4----4--4--4--4--4--4--|--6----6--6--6--6--6--6--|


                                                       
----------------------------|-------------------------|
----------------------------|-------------------------|
--10--11----13----11--10----|-------------------------|
----------------------------|--4----4--4--4--4--4--4--|
--8---9-----11----9---8-----|--4----4--4--4--4--4--4--|
----------------------------|--2----2--2--2--2--2--2--|


                                                                               
-------------------------|-------------------------|--------------------------|
-------------------------|-------------------------|--------------------------|
-------------------------|-------------------------|--------------------------|
--6----6--6--6--6--6--6--|--8----8--8--8--8--8--8--|--8--8--8--8--8--8--8--8--|
--6----6--6--6--6--6--6--|--8----8--8--8--8--8--8--|--8--8--8--8--8--8--8--8--|
--4----4--4--4--4--4--4--|--6----6--6--6--6--6--6--|--6--6--6--6--6--6--6--6--|


                                                                              
-------------------------|-------------------------|-------------------------|
-------------------------|-------------------------|-------------------------|
-------------------------|-------------------------|-------------------------|
--4----4--4--4--4--4--4--|--6----6--6--6--6--6--6--|--8----8--8--8--8--8--8--|
--4----4--4--4--4--4--4--|--6----6--6--6--6--6--6--|--8----8--8--8--8--8--8--|
--2----2--2--2--2--2--2--|--4----4--4--4--4--4--4--|--6----6--6--6--6--6--6--|


                                                                                
---------------------------|-------------------------|-------------------------|
---------------------------|-------------------------|-------------------------|
--10--10----10--5--5----5--|-------x--x--x--x--x--x--|-------x--x--x--x--x--x--|
---------------------------|-------x--x--x--x--x--x--|-------x--x--x--x--x--x--|
--8---8-----8---3--3----3--|--4----4--4--4--4--4--4--|--6----6--6--6--6--6--6--|
---------------------------|--6----6--6--6--6--6--6--|--4----4--4--4--4--4--4--|


                                                                              
-------------------------|-------------------------|-------------------------|
-------------------------|-------------------------|-------------------------|
-------x--x--x--x--x--x--|-------x--x--x--x--x--x--|-------x--x--x--x--x--x--|
-------x--x--x--x--x--x--|-------x--x--x--x--x--x--|-------x--x--x--x--x--x--|
--8----8--8--8--8--8--8--|--9----9--9--9--9--9--9--|--8----8--8--8--8--8--8--|
--9----9--9--9--9--9--9--|--9----9--9--9--9--9--9--|--9----9--9--9--9--9--9--|


                                                                               
-------------------------|-------------------------|--------------------------|
-------------------------|-------------------------|--------------------------|
-------x--x--x--x--x--x--|-------x--x--x--x--x--x--|--x--x--x--x--x--x--x--x--|
-------x--x--x--x--x--x--|-------x--x--x--x--x--x--|--x--x--x--x--x--x--x--x--|
--6----6--6--6--6--6--6--|--8----8--8--8--8--8--8--|--8--8--8--8--8--8--8--8--|
--8----8--8--8--8--8--8--|--6----6--6--6--6--6--6--|--6--6--6--6--6--6--6--6--|

[ Tab from: http://www.guitartabs.cc/tabs/r/rise_against/like_the_angel_tab_ver_6.html ]
                                                                              
-------------------------|-------------------------|-------------------------|
-------------------------|-------------------------|-------------------------|
-------x--x--x--x--x--x--|-------x--x--x--x--x--x--|-------x--x--x--x--x--x--|
-------x--x--x--x--x--x--|-------x--x--x--x--x--x--|-------x--x--x--x--x--x--|
--4----4--4--4--4--4--4--|--6----6--6--6--6--6--6--|--8----8--8--8--8--8--8--|
--6----6--6--6--6--6--6--|--4----4--4--4--4--4--4--|--9----9--9--9--9--9--9--|


                                                                              
-------------------------|-------------------------|-------------------------|
-------------------------|-------------------------|-------------------------|
-------x--x--x--x--x--x--|-------x--x--x--x--x--x--|-------x--x--x--x--x--x--|
-------x--x--x--x--x--x--|-------x--x--x--x--x--x--|-------x--x--x--x--x--x--|
--9----9--9--9--9--9--9--|--8----8--8--8--8--8--8--|--6----6--6--6--6--6--6--|
--9----9--9--9--9--9--9--|--9----9--9--9--9--9--9--|--8----8--8--8--8--8--8--|


                                                                                
-------------------------|--------------------------|--------------------------|
-------------------------|--------------------------|--------------------------|
-------x--x--x--x--x--x--|--------------------------|--6--6--6--6--6--6--6--6--|
-------x--x--x--x--x--x--|--------------------------|--------------------------|
--8----8--8--8--8--8--8--|--8--8--8--8--8--8--8--8--|--4--4--4--4--4--4--4--4--|
--6----6--6--6--6--6--6--|--6--6--6--6--6--6--6--6--|--------------------------|


                                                                               
--------------------------|--------------------------|------------------------|
--------------------------|--------------------------|------------------------|
--6--6--6--6--6--6--6--6--|--6--6--6--6--6--6--6--6--|------------------------|
--------------------------|--------------------------|--8----8--8--6----6--6--|
--4--4--4--4--4--4--4--4--|--4--4--4--4--4--4--4--4--|--8----8--8--6----6--6--|
--------------------------|--------------------------|--6----6--6--4----4--4--|


                                                                              
-------------------------|-------------------------|-------------------------|
-------------------------|-------------------------|-------------------------|
-------------------------|-------------------------|-------------------------|
--4----4--4--4--4--4--4--|--6----6--6--6--6--6--6--|--8----8--8--8--8--8--8--|
--4----4--4--4--4--4--4--|--6----6--6--6--6--6--6--|--8----8--8--8--8--8--8--|
--2----2--2--2--2--2--2--|--4----4--4--4--4--4--4--|--6----6--6--6--6--6--6--|


                                                       
----------------------------|-------------------------|
----------------------------|-------------------------|
--10--11----13----11--10----|-------------------------|
----------------------------|--4----4--4--4--4--4--4--|
--8---9-----11----9---8-----|--4----4--4--4--4--4--4--|
----------------------------|--2----2--2--2--2--2--2--|


                                                                               
-------------------------|-------------------------|--------------------------|
-------------------------|-------------------------|--------------------------|
-------------------------|-------------------------|--------------------------|
--6----6--6--6--6--6--6--|--8----8--8--8--8--8--8--|--8--8--8--8--8--8--8--8--|
--6----6--6--6--6--6--6--|--8----8--8--8--8--8--8--|--8--8--8--8--8--8--8--8--|
--4----4--4--4--4--4--4--|--6----6--6--6--6--6--6--|--6--6--6--6--6--6--6--6--|


                                                                              
-------------------------|-------------------------|-------------------------|
-------------------------|-------------------------|-------------------------|
-------------------------|-------------------------|-------------------------|
--4----4--4--4--4--4--4--|--6----6--6--6--6--6--6--|--8----8--8--8--8--8--8--|
--4----4--4--4--4--4--4--|--6----6--6--6--6--6--6--|--8----8--8--8--8--8--8--|
--2----2--2--2--2--2--2--|--4----4--4--4--4--4--4--|--6----6--6--6--6--6--6--|


                                                     
---------------------------|------------------------|
---------------------------|------------------------|
--10--10----10--5--5----5--|----------6--8r---6-----|
---------------------------|-------8-------------8--|
--8---8-----8---3--3----3--|--8---------------------|
---------------------------|------------------------|


                                                                    
----------------------------------|--------------------------------|
----------------------------------|--------------------------------|
----------13h11h10----------------|--------------------------------|
-------------------13h11h10-11-11-|--11----11--11--11h-13--11--10--|
----------------------------------|--------------------------------|
----------------------------------|--------------------------------|


                                                          
--------------------------|------------------------------|
--------------------------|------------------------------|
--------------------------|--15----15----15--13--11--10--|
----------10h-11--11h-10--|------------------------------|
--------------------------|------------------------------|
--------------------------|------------------------------|


                                                                          
--------------------------|-------------------------|--------------------|
--------------------------|-------------------------|--------------------|
----------10h-11--11h-10--|--6----6--6--6--8--6--5--|----------5h-6r-----|
--------------------------|-------------------------|--------------------|
--------------------------|-------------------------|--------------------|
--------------------------|-------------------------|--------------------|


                                                      
------------------------|----------------6h8h9-11-11-|
---------------------9--|----------6h7h9-------------|
----------6--8r---6-----|----------------------------|
-------8----------------|----------------------------|
--8---------------------|----------------------------|
------------------------|----------------------------|


                                                                               
--11----11--11--11--9--8--6--|----------6h-8--8h-6--|-------------------------|
-----------------------------|----------------------|--6----6--6--6--7--6-----|
-----------------------------|----------------------|----------------------6--|
-----------------------------|----------------------|-------------------------|
-----------------------------|----------------------|-------------------------|
-----------------------------|----------------------|-------------------------|


                                                               
----------------------|--4r---------------|--6r---------------|
----------------6h-7--|-------------------|-------------------|
----------6h-8--------|-------------------|-------------------|
----------------------|-------------------|-------------------|
----------------------|-------------------|-------------------|
----------------------|-------------------|-------------------|


                                                                             
--8b---------------|------------------|------------------|------------------|
-------------------|------------------|------------------|------------------|
-------------------|------------------|------------------|------------------|
-------------------|------------------|------------------|------------------|
-------------------|------------------|------------------|------------------|
-------------------|------------------|------------------|------------------|


                                                                            
------------------|------------------|------------------|------------------|
------------------|------------------|------------------|------------------|
------------------|------------------|------------------|------------------|
------------------|------------------|------------------|------------------|
------------------|------------------|------------------|------------------|
------------------|------------------|------------------|------------------|


                                                                            
------------------|------------------|------------------|------------------|
------------------|------------------|------------------|------------------|
------------------|------------------|------------------|------------------|
------------------|------------------|------------------|------------------|
------------------|------------------|------------------|------------------|
------------------|------------------|------------------|------------------|


                                                                            
------------------|------------------|------------------|------------------|
------------------|------------------|------------------|------------------|
------------------|------------------|------------------|------------------|
------------------|------------------|------------------|------------------|
------------------|------------------|------------------|------------------|
------------------|------------------|------------------|------------------|


                                                      
--------------------------|--------------------------|
--------------------------|--------------------------|
--6--6--6--6--6--6--6--6--|--6--6--6--6--6--6--6--6--|
--------------------------|--------------------------|
--4--4--4--4--4--4--4--4--|--4--4--4--4--4--4--4--4--|
--------------------------|--------------------------|


                                                                              
--------------------------|------------------------|-------------------------|
--------------------------|------------------------|-------------------------|
--6--6--6--6--6--6--6--6--|------------------------|-------------------------|
--------------------------|--8----8--8--6----6--6--|--4----4--4--4--4--4--4--|
--4--4--4--4--4--4--4--4--|--8----8--8--6----6--6--|--4----4--4--4--4--4--4--|
--------------------------|--6----6--6--4----4--4--|--2----2--2--2--2--2--2--|


                                                    
-------------------------|-------------------------|
-------------------------|-------------------------|
-------------------------|-------------------------|
--6----6--6--6--6--6--6--|--8----8--8--8--8--8--8--|
--6----6--6--6--6--6--6--|--8----8--8--8--8--8--8--|
--4----4--4--4--4--4--4--|--6----6--6--6--6--6--6--|


                                                       
----------------------------|-------------------------|
----------------------------|-------------------------|
--10--11----13----11--10----|-------------------------|
----------------------------|--4----4--4--4--4--4--4--|
--8---9-----11----9---8-----|--4----4--4--4--4--4--4--|
----------------------------|--2----2--2--2--2--2--2--|


                                                                               
-------------------------|-------------------------|--------------------------|
-------------------------|-------------------------|--------------------------|
-------------------------|-------------------------|--------------------------|
--6----6--6--6--6--6--6--|--8----8--8--8--8--8--8--|--8--8--8--8--8--8--8--8--|
--6----6--6--6--6--6--6--|--8----8--8--8--8--8--8--|--8--8--8--8--8--8--8--8--|
--4----4--4--4--4--4--4--|--6----6--6--6--6--6--6--|--6--6--6--6--6--6--6--6--|


                                                                              
-------------------------|-------------------------|-------------------------|
-------------------------|-------------------------|-------------------------|
-------------------------|-------------------------|-------------------------|
--4----4--4--4--4--4--4--|--6----6--6--6--6--6--6--|--8----8--8--8--8--8--8--|
--4----4--4--4--4--4--4--|--6----6--6--6--6--6--6--|--8----8--8--8--8--8--8--|
--2----2--2--2--2--2--2--|--4----4--4--4--4--4--4--|--6----6--6--6--6--6--6--|


                                                                   
---------------------------|-------------------|------------------|
---------------------------|-------------------|------------------|
--10--10----10--5--5----5--|--6----------------|------------------|
---------------------------|-------------------|------------------|
--8---8-----8---3--3----3--|--4----------------|------------------|
---------------------------|-------------------|------------------|


                                                                            
------------------|------------------|------------------|------------------|
------------------|------------------|------------------|------------------|
------------------|------------------|------------------|------------------|
------------------|------------------|------------------|------------------|
------------------|------------------|------------------|------------------|
------------------|------------------|------------------|------------------|


                                                                             
------------------|------------------|------------------|------------------||
------------------|------------------|------------------|------------------||
------------------|------------------|------------------|------------------||
------------------|------------------|------------------|------------------||
------------------|------------------|------------------|------------------||
------------------|------------------|------------------|------------------||

oe Principe (Bass)
Standard Tuning



                                                             
G||--6---------6---------6-----|--8---------8---------8-----|
D||-----8-8-8-----8-8-8-----8--|-----6-6-6-----6-6-6-----6--|
A||----------------------------|----------------------------|
E||----------------------------|----------------------------|


                                                                              
--10------------10------------10------|--11------------11------------11------|
------11-11-11------11-11-11------11--|------11-11-11------11-11-11------11--|
--------------------------------------|--------------------------------------|
--------------------------------------|--------------------------------------|


                                                                           
--10------------10------------10------|--8------------8------------8------|
------11-11-11------11-11-11------11--|-----10-10-10-----10-10-10-----10--|
--------------------------------------|-----------------------------------|
--------------------------------------|-----------------------------------|


                                                                   
--10----------------|------------------|--------------------------|
--8-----------------|------------------|--------------------------|
--------------------|------------------|--1--1--1--1--1--1--1--1--|
--------------------|------------------|--------------------------|


                                                      
--------------------------|--------------------------|
--------------------------|--------------------------|
--------------------------|--4--4--4--4--4--4--4--4--|
--4--4--4--4--4--4--4--4--|--------------------------|


                                                      
--------------------------|--------------------------|
--------------------------|--------------------------|
--------------------------|--4--4--4--4--4--4--4--4--|
--2--2--2--2--2--2--2--2--|--------------------------|


                                                                                
--------------------------|--------------------------|-------------------------|
--------------------------|--------------------------|-------------------------|
--3--3--3--3--3--3--3--3--|--1--1--1--1--1--------1--|----1--1--1--1--1--1--1--|
--------------------------|-----------------4--4-----|-------------------------|


                                                      
--------------------------|--------------------------|
--------------------------|--------------------------|
--1--1--1--1--1--1--1--1--|--------------------------|
--------------------------|--4--4--4--4--4--4--4--4--|


                                                      
--------------------------|--------------------------|
--------------------------|--------------------------|
--4--4--4--4--4--4--4--4--|--------------------------|
--------------------------|--2--2--2--2--2--2--2--2--|


                                                      
--------------------------|--------------------------|
--------------------------|--------------------------|
--4--4--4--4--4--4--4--4--|--3--3--3--3--3--3--3--3--|
--------------------------|--------------------------|


                                                              
--------------------------|----------------------------------|
-----------------------3/-|--15--15--15--15--15--15--15--15--|
--1--1--1--1--1--1--1-----|----------------------------------|
--------------------------|----------------------------------|


                                                                              
-------------------------|-------------------------|--1----1--1--1--1--1--1--|
--4----4--4--4--4--4--4--|--3----3--3--3--3--3--3--|-------------------------|
-------------------------|-------------------------|-------------------------|
-------------------------|-------------------------|-------------------------|


                                                                             
--3----3--3--1----1--1--|-------------------------|--1----1--1--1--1--1--1--|
------------------------|--4----4--4--4--4--4--4--|-------------------------|
------------------------|-------------------------|-------------------------|
------------------------|-------------------------|-------------------------|


                                                                              
--3----3--3--3--3--3--3--|--3--3--3--3--3--1-------|-------------------------|
-------------------------|--------------------4----|--4----4--4--4--4--4--4--|
-------------------------|-------------------------|-------------------------|
-------------------------|-------------------------|-------------------------|


                                                                              
--1----1--1--1--1--1--1--|--3----3--3--3--3--3--3--|--3--3--3--3--5----5--5--|
-------------------------|-------------------------|-------------------------|
-------------------------|-------------------------|-------------------------|
-------------------------|-------------------------|-------------------------|


                                                                              
--6----6--6--6--6--6--6--|--5----5--5--1--1--1--1--|--3----3--3--3--3--3--3--|
-------------------------|-------------------------|-------------------------|
-------------------------|-------------------------|-------------------------|
-------------------------|-------------------------|-------------------------|


                                                      
--3--3--3--3--3--3--3--3--|--------------------------|
--------------------------|--------------------------|
--------------------------|--1--1--1--1--1--1--1--1--|
--------------------------|--------------------------|


                                                      
--------------------------|--------------------------|
--------------------------|--------------------------|
--------------------------|--4--4--4--4--4--4--4--4--|
--4--4--4--4--4--4--4--4--|--------------------------|


                                                      
--------------------------|--------------------------|
--------------------------|--------------------------|
--------------------------|--4--4--4--4--4--4--4--4--|
--2--2--2--2--2--2--2--2--|--------------------------|


                                                                                
--------------------------|--------------------------|-------------------------|
--------------------------|--------------------------|-------------------------|
--3--3--3--3--3--3--3--3--|--1--1--1--1--1--------1--|----1--1--1--1--1--1--1--|
--------------------------|-----------------4--4-----|-------------------------|


                                                      
--------------------------|--------------------------|
--------------------------|--------------------------|
--1--1--1--1--1--1--1--1--|--------------------------|
--------------------------|--4--4--4--4--4--4--4--4--|


                                                      
--------------------------|--------------------------|
--------------------------|--------------------------|
--4--4--4--4--4--4--4--4--|--------------------------|
--------------------------|--2--2--2--2--2--2--2--2--|


                                                      
--------------------------|--------------------------|
--------------------------|--------------------------|
--4--4--4--4--4--4--4--4--|--3--3--3--3--3--3--3--3--|
--------------------------|--------------------------|


                                                              
--------------------------|----------------------------------|
-----------------------3/-|--15--15--15--15--15--15--15--15--|
--1--1--1--1--1--1--1-----|----------------------------------|
--------------------------|----------------------------------|


                                                                              
-------------------------|-------------------------|--1----1--1--1--1--1--1--|
--4----4--4--4--4--4--4--|--3----3--3--3--3--3--3--|-------------------------|
-------------------------|-------------------------|-------------------------|
-------------------------|-------------------------|-------------------------|


                                                                             
--3----3--3--1----1--1--|-------------------------|--1----1--1--1--1--1--1--|
------------------------|--4----4--4--4--4--4--4--|-------------------------|
------------------------|-------------------------|-------------------------|
------------------------|-------------------------|-------------------------|


                                                                              
--3----3--3--3--3--3--3--|--3--3--3--3--3--1-------|-------------------------|
-------------------------|--------------------4----|--4----4--4--4--4--4--4--|
-------------------------|-------------------------|-------------------------|
-------------------------|-------------------------|-------------------------|


                                                                              
--1----1--1--1--1--1--1--|--3----3--3--3--3--3--3--|--3--3--3--3--5----5--5--|
-------------------------|-------------------------|-------------------------|
-------------------------|-------------------------|-------------------------|
-------------------------|-------------------------|-------------------------|


                                                                              
--6----6--6--6--6--6--6--|--5----5--5--1--1--1--1--|--3----3--3--3--3--3--3--|
-------------------------|-------------------------|-------------------------|
-------------------------|-------------------------|-------------------------|
-------------------------|-------------------------|-------------------------|


                                                                           
--3--3--3--3--3--3--3--3--|------------------------|----------------------|
--------------------------|------------------------|----------------------|
--------------------------|--1----1----1--1--1-----|----------------------|
--------------------------|---------------------2--|----2--2----2----2----|


                                                                         
------------------------|----------------------|------------------------|
------------------------|-----------------1----|------------------------|
--4----4----4--4--4-----|-------3----4---------|--1----1----1--1--1-----|
---------------------4--|----4-----------------|---------------------2--|


                                                                             
----------------------|--------------------------|--------------------------|
----------------------|--------------------------|--------------------------|
----------------------|--------------------------|--------------------------|
----2--2----2----2----|--4--4--4--4--4--4--4--4--|--4--4--4--4--4--4--4--4--|


                                                                         
------------------------|----------------------|------------------------|
------------------------|----------------------|------------------------|
--1----1----1--1--1-----|----------------------|--4----4----4--4--4-----|
---------------------2--|----2--2----2----2----|---------------------4--|


                                                                       
----------------------|------------------------|----------------------|
-----------------1----|------------------------|----------------------|
-------3----4---------|--1----1----1--1--1-----|----------------------|
----4-----------------|---------------------2--|----2--2----2----2----|


                                                      
--------------------------|--------------------------|
--------------------------|--------------------------|
--------------------------|--------------------------|
--4--4--4--4--4--4--4--4--|--4--4--4--4--4--4--4--4--|


                                                      
--------------------------|--------------------------|
--------------------------|--------------------------|
--1--1--1--1--1--1--1--1--|--------------------------|
--------------------------|--4--4--4--4--4--4--4--4--|


                                                      
--------------------------|--------------------------|
--------------------------|--------------------------|
--4--4--4--4--4--4--4--4--|--------------------------|
--------------------------|--2--2--2--2--2--2--2--2--|


                                                      
--------------------------|--------------------------|
--------------------------|--------------------------|
--4--4--4--4--4--4--4--4--|--3--3--3--3--3--3--3--3--|
--------------------------|--------------------------|


                                                                                
--------------------------|-------------------------|--------------------------|
--------------------------|-------------------------|--------------------------|
--1--1--1--1--1--------1--|----1--1--1--1--1--1--1--|--1--1--1--1--1--1--1--1--|
-----------------4--4-----|-------------------------|--------------------------|


                                                      
--------------------------|--------------------------|
--------------------------|--------------------------|
--------------------------|--4--4--4--4--4--4--4--4--|
--4--4--4--4--4--4--4--4--|--------------------------|


                                                      
--------------------------|--------------------------|
--------------------------|--------------------------|
--------------------------|--4--4--4--4--4--4--4--4--|
--2--2--2--2--2--2--2--2--|--------------------------|


                                                      
--------------------------|--------------------------|
--------------------------|-----------------------3/-|
--3--3--3--3--3--3--3--3--|--1--1--1--1--1--1--1-----|
--------------------------|--------------------------|


                                                             
----------------------------------|-------------------------|
--15--15--15--15--15--15--15--15--|--4----4--4--4--4--4--4--|
----------------------------------|-------------------------|
----------------------------------|-------------------------|


                                                                             
-------------------------|--1----1--1--1--1--1--1--|--3----3--3--1----1--1--|
--3----3--3--3--3--3--3--|-------------------------|------------------------|
-------------------------|-------------------------|------------------------|
-------------------------|-------------------------|------------------------|


                                                                              
-------------------------|--1----1--1--1--1--1--1--|--3----3--3--3--3--3--3--|
--4----4--4--4--4--4--4--|-------------------------|-------------------------|
-------------------------|-------------------------|-------------------------|
-------------------------|-------------------------|-------------------------|


                                                                              
--3--3--3--3--3--1-------|-------------------------|--1----1--1--1--1--1--1--|
--------------------4----|--4----4--4--4--4--4--4--|-------------------------|
-------------------------|-------------------------|-------------------------|
-------------------------|-------------------------|-------------------------|


                                                                              
--3----3--3--3--3--3--3--|--3--3--3--3--5----5--5--|--6----6--6--6--6--6--6--|
-------------------------|-------------------------|-------------------------|
-------------------------|-------------------------|-------------------------|
-------------------------|-------------------------|-------------------------|


                                                                               
--5----5--5--1--1--1--1--|--3----3--3--3--3--3--3--|--3--3--3--3--3--3--3--3--|
-------------------------|-------------------------|--------------------------|
-------------------------|-------------------------|--------------------------|
-------------------------|-------------------------|--------------------------|


                                                          
--6---------6---------6-----|--8---------8---------8-----|
-----8-8-8-----8-8-8-----8--|-----6-6-6-----6-6-6-----6--|
----------------------------|----------------------------|
----------------------------|----------------------------|


                                                                              
--10------------10------------10------|--11------------11------------11------|
------11-11-11------11-11-11------11--|------11-11-11------11-11-11------11--|
--------------------------------------|--------------------------------------|
--------------------------------------|--------------------------------------|


                                                                           
--10------------10------------10------|--8------------8------------8------|
------11-11-11------11-11-11------11--|-----10-10-10-----10-10-10-----10--|
--------------------------------------|-----------------------------------|
--------------------------------------|-----------------------------------|


                                                                               
--10----------------|------------------|------------------|------------------||
--8-----------------|------------------|------------------|------------------||
--------------------|------------------|------------------|------------------||
--------------------|------------------|------------------|------------------||
Comments