Rise Against - Like The Angel Chords & Tabs

 

Like The Angel Chords & Tabs

Rise Against Chords & Tabs

Version: 4 Type: Tab 0 ratings
1 star 2 stars 3 stars 4 stars 5 stars
comments

Like The Angel Tab

Artist: Rise Against
Song Name: Like the Angel
Album: Revolutions Per Minute


VERSE (same as bass intro, by the way): *=6-8 times, #=16 times
e|---------------------------------------------------------------------------|
B|---------------------------------------------------------------------------|
G|---------------------------------------------------------------------------|
D|--*--*--*--*--*--*--#------------------------------------------------------|
A|-4--6--8--9--8--6--8-------------------------------------------------------|
E|-6--4--9--9--9--8--6-------------------------------------------------------|

CHORUS: #= 8 times, *=4 times, =15-16 times
e|---------------------------------------------------------------------------|
B|--#--#--#------------------------------------------------------------------|
G|-6--6--6---*--*--#--#----#--#-------#--#--------------------------------|
D|-X--X--X--8--6--4--6--8--4--6--8--6--4--6--8-------------------------------|
A|-4--4--4--8--6--4--6--8--4--6--8--6--4--6--8-------------------------------|
E|----------6--4--2--4--6--2--4--6--4--2--4--6-------------------------------|
[ Tab from: http://www.guitartabs.cc/tabs/r/rise_against/like_the_angel_tab_ver_4.html ]
SOLO (those after the "fast" part are 10s, 11s and 13s, not 1s, 2s and 3s):
e|---------------------------------------------------------------------------|
B|------6b-----------!!fast!!------------------------------------------------|
G|----6----6-----13b11b10----------------------------------------------------|
D|---8-------8-----------13p11p10--11-11111-131210---10h11-11p10-------------|
A|-8-------------------------------------------------------------------------|
E|---------------------------------------------------------------------------|
SOLO cont.:
e|---------------------------------------------------------------------------|
B|---------------------------------------------------------------------------|
G|-/15-151515-13-11-10--10h11-11p10--6-666-8-6-5--5-6b8r6--------------------|
D|---------------------------------------------------------------------------|
A|---------------------------------------------------------------------------|
E|---------------------------------------------------------------------------|
SOLO cont.:
e|--------------------6h8h9--/11-111111-9-8-6--6h8-8p6-----------------------|
B|------6b---9--6h7h9--------------------------------------------------------|
G|----6----6-----!!fast!!----------------------------------------------------|
D|---8-----------------------------------------------------------------------|
A|-8-------------------------------------------------------------------------|
E|---------------------------------------------------------------------------|
SOLO cont.:
e|---------------------/6b-/8b-/9b-------------------------------------------|
B|-6-666-7-6--------6h7------------------------------------------------------|
G|-----------6--6h8----------------------------------------------------------|
D|---------------------------------------------------------------------------|
A|---------------------------------------------------------------------------|
E|---------------------------------------------------------------------------|
Comments