Rise Against - Like The Angel Chords & Tabs

 

Like The Angel Chords & Tabs

Rise Against Chords & Tabs

Version: 1 Type: Tab 7 ratings
1 star 2 stars 3 stars 4 stars 5 stars
comments

Like The Angel Tab

Rise Against
"Like The Angel"




Symbols:
>     repeat note
/     slide up

Intro/Outro
G-6---6---6--8---8---8--/10-----10-----10---11-----11-----11---
D--88--88--8--66--66--6----1111---1111---11---1111---1111---11-
A--------------------------------------------------------------
E--------------------------------------------------------------

G-10-----10-----10---8-----8-----8---10-|
D---1111---1111---11--1010--1010--10-8--|
A---------------------------------------|
E---------------------------------------|
[ Tab from: http://www.guitartabs.cc/tabs/r/rise_against/like_the_angel_tab.html ]
Verse
G------------------------------|-------------------------/10-|
D---------------------33----3>-|----------------------3>-----|
A-1>----4>----4>-3>-11---11----|-1>----4>----4>-3>-11--------|
E----4>----2>------------------|----4>----2>-----------------|

Chorus
G-------1>-3-33-1-11----1>-3>-|----1>-3>-555-6>-5-55-1-11-3>-|
D-4>-3>--------------4>-------|-4>---------------------------|
A-----------------------------|------------------------------|
E-----------------------------|------------------------------|

- play Verse
- play Chorus

Solo (2x)
G-----------------------------|
D-----------------1-----------|
A-1>----4>----3-4----1>-------|
E----2>----4>-----------2>-4>-|

- play Verse
- play Chorus
- play Intro/Outro
Comments