Rise Against - Like The Angel Chords & Tabs

 

Like The Angel Chords & Tabs

Rise Against Chords & Tabs

Version: 3 Type: Bass Tab 0 ratings
1 star 2 stars 3 stars 4 stars 5 stars
comments

Like The Angel Bass Tab

                                RISE AGAINST

Like the angel
Standard Tuning



                                                             
G||--6---------6---------6-----|--8---------8---------8-----|
D||-----8-8-8-----8-8-8-----8--|-----6-6-6-----6-6-6-----6--|
A||----------------------------|----------------------------|
E||----------------------------|----------------------------|


                                                                              
--10------------10------------10------|--11------------11------------11------|
------11-11-11------11-11-11------11--|------11-11-11------11-11-11------11--|
--------------------------------------|--------------------------------------|
--------------------------------------|--------------------------------------|


                                                                           
--10------------10------------10------|--8------------8------------8------|
------11-11-11------11-11-11------11--|-----10-10-10-----10-10-10-----10--|
--------------------------------------|-----------------------------------|
--------------------------------------|-----------------------------------|


                                                                   
--10----------------|------------------|--------------------------|
--8-----------------|------------------|--------------------------|
--------------------|------------------|--1--1--1--1--1--1--1--1--|
--------------------|------------------|--------------------------|


                                                      
--------------------------|--------------------------|
--------------------------|--------------------------|
--------------------------|--4--4--4--4--4--4--4--4--|
--4--4--4--4--4--4--4--4--|--------------------------|


                                                      
--------------------------|--------------------------|
--------------------------|--------------------------|
--------------------------|--4--4--4--4--4--4--4--4--|
--2--2--2--2--2--2--2--2--|--------------------------|


                                                                                
--------------------------|--------------------------|-------------------------|
--------------------------|--------------------------|-------------------------|
--3--3--3--3--3--3--3--3--|--1--1--1--1--1--------1--|----1--1--1--1--1--1--1--|
--------------------------|-----------------4--4-----|-------------------------|


                                                      
--------------------------|--------------------------|
--------------------------|--------------------------|
--1--1--1--1--1--1--1--1--|--------------------------|
--------------------------|--4--4--4--4--4--4--4--4--|


                                                      
--------------------------|--------------------------|
--------------------------|--------------------------|
--4--4--4--4--4--4--4--4--|--------------------------|
--------------------------|--2--2--2--2--2--2--2--2--|


                                                      
--------------------------|--------------------------|
--------------------------|--------------------------|
--4--4--4--4--4--4--4--4--|--3--3--3--3--3--3--3--3--|
--------------------------|--------------------------|


                                                              
--------------------------|----------------------------------|
-----------------------3/-|--15--15--15--15--15--15--15--15--|
--1--1--1--1--1--1--1-----|----------------------------------|
--------------------------|----------------------------------|


                                                                              
-------------------------|-------------------------|--1----1--1--1--1--1--1--|
--4----4--4--4--4--4--4--|--3----3--3--3--3--3--3--|-------------------------|
-------------------------|-------------------------|-------------------------|
-------------------------|-------------------------|-------------------------|


                                                                             
--3----3--3--1----1--1--|-------------------------|--1----1--1--1--1--1--1--|
------------------------|--4----4--4--4--4--4--4--|-------------------------|
------------------------|-------------------------|-------------------------|
------------------------|-------------------------|-------------------------|


                                                                              
--3----3--3--3--3--3--3--|--3--3--3--3--3--1-------|-------------------------|
-------------------------|--------------------4----|--4----4--4--4--4--4--4--|
-------------------------|-------------------------|-------------------------|
-------------------------|-------------------------|-------------------------|


                                                                              
--1----1--1--1--1--1--1--|--3----3--3--3--3--3--3--|--3--3--3--3--5----5--5--|
-------------------------|-------------------------|-------------------------|
-------------------------|-------------------------|-------------------------|
-------------------------|-------------------------|-------------------------|


                                                                              
--6----6--6--6--6--6--6--|--5----5--5--1--1--1--1--|--3----3--3--3--3--3--3--|
-------------------------|-------------------------|-------------------------|
-------------------------|-------------------------|-------------------------|
-------------------------|-------------------------|-------------------------|


                                                      
--3--3--3--3--3--3--3--3--|--------------------------|
--------------------------|--------------------------|
--------------------------|--1--1--1--1--1--1--1--1--|
--------------------------|--------------------------|


                                                      
--------------------------|--------------------------|
--------------------------|--------------------------|
--------------------------|--4--4--4--4--4--4--4--4--|
--4--4--4--4--4--4--4--4--|--------------------------|


                                                      
--------------------------|--------------------------|
--------------------------|--------------------------|
--------------------------|--4--4--4--4--4--4--4--4--|
--2--2--2--2--2--2--2--2--|--------------------------|


                                                                                
--------------------------|--------------------------|-------------------------|
--------------------------|--------------------------|-------------------------|
--3--3--3--3--3--3--3--3--|--1--1--1--1--1--------1--|----1--1--1--1--1--1--1--|
--------------------------|-----------------4--4-----|-------------------------|


                                                      
--------------------------|--------------------------|
--------------------------|--------------------------|
--1--1--1--1--1--1--1--1--|--------------------------|
--------------------------|--4--4--4--4--4--4--4--4--|


                                                      
--------------------------|--------------------------|
--------------------------|--------------------------|
--4--4--4--4--4--4--4--4--|--------------------------|
--------------------------|--2--2--2--2--2--2--2--2--|


                                                      
--------------------------|--------------------------|
--------------------------|--------------------------|
--4--4--4--4--4--4--4--4--|--3--3--3--3--3--3--3--3--|
--------------------------|--------------------------|


                                                              
--------------------------|----------------------------------|
-----------------------3/-|--15--15--15--15--15--15--15--15--|
--1--1--1--1--1--1--1-----|----------------------------------|
--------------------------|----------------------------------|


                                                                              
-------------------------|-------------------------|--1----1--1--1--1--1--1--|
--4----4--4--4--4--4--4--|--3----3--3--3--3--3--3--|-------------------------|
-------------------------|-------------------------|-------------------------|
-------------------------|-------------------------|-------------------------|


                                                                             
--3----3--3--1----1--1--|-------------------------|--1----1--1--1--1--1--1--|
------------------------|--4----4--4--4--4--4--4--|-------------------------|
------------------------|-------------------------|-------------------------|
------------------------|-------------------------|-------------------------|

[ Tab from: http://www.guitartabs.cc/tabs/r/rise_against/like_the_angel_btab_ver_3.html ]
                                                                              
--3----3--3--3--3--3--3--|--3--3--3--3--3--1-------|-------------------------|
-------------------------|--------------------4----|--4----4--4--4--4--4--4--|
-------------------------|-------------------------|-------------------------|
-------------------------|-------------------------|-------------------------|


                                                                              
--1----1--1--1--1--1--1--|--3----3--3--3--3--3--3--|--3--3--3--3--5----5--5--|
-------------------------|-------------------------|-------------------------|
-------------------------|-------------------------|-------------------------|
-------------------------|-------------------------|-------------------------|


                                                                              
--6----6--6--6--6--6--6--|--5----5--5--1--1--1--1--|--3----3--3--3--3--3--3--|
-------------------------|-------------------------|-------------------------|
-------------------------|-------------------------|-------------------------|
-------------------------|-------------------------|-------------------------|


                                                                           
--3--3--3--3--3--3--3--3--|------------------------|----------------------|
--------------------------|------------------------|----------------------|
--------------------------|--1----1----1--1--1-----|----------------------|
--------------------------|---------------------2--|----2--2----2----2----|


                                                                         
------------------------|----------------------|------------------------|
------------------------|-----------------1----|------------------------|
--4----4----4--4--4-----|-------3----4---------|--1----1----1--1--1-----|
---------------------4--|----4-----------------|---------------------2--|


                                                                             
----------------------|--------------------------|--------------------------|
----------------------|--------------------------|--------------------------|
----------------------|--------------------------|--------------------------|
----2--2----2----2----|--4--4--4--4--4--4--4--4--|--4--4--4--4--4--4--4--4--|


                                                                         
------------------------|----------------------|------------------------|
------------------------|----------------------|------------------------|
--1----1----1--1--1-----|----------------------|--4----4----4--4--4-----|
---------------------2--|----2--2----2----2----|---------------------4--|


                                                                       
----------------------|------------------------|----------------------|
-----------------1----|------------------------|----------------------|
-------3----4---------|--1----1----1--1--1-----|----------------------|
----4-----------------|---------------------2--|----2--2----2----2----|


                                                      
--------------------------|--------------------------|
--------------------------|--------------------------|
--------------------------|--------------------------|
--4--4--4--4--4--4--4--4--|--4--4--4--4--4--4--4--4--|


                                                      
--------------------------|--------------------------|
--------------------------|--------------------------|
--1--1--1--1--1--1--1--1--|--------------------------|
--------------------------|--4--4--4--4--4--4--4--4--|


                                                      
--------------------------|--------------------------|
--------------------------|--------------------------|
--4--4--4--4--4--4--4--4--|--------------------------|
--------------------------|--2--2--2--2--2--2--2--2--|


                                                      
--------------------------|--------------------------|
--------------------------|--------------------------|
--4--4--4--4--4--4--4--4--|--3--3--3--3--3--3--3--3--|
--------------------------|--------------------------|


                                                                                
--------------------------|-------------------------|--------------------------|
--------------------------|-------------------------|--------------------------|
--1--1--1--1--1--------1--|----1--1--1--1--1--1--1--|--1--1--1--1--1--1--1--1--|
-----------------4--4-----|-------------------------|--------------------------|


                                                      
--------------------------|--------------------------|
--------------------------|--------------------------|
--------------------------|--4--4--4--4--4--4--4--4--|
--4--4--4--4--4--4--4--4--|--------------------------|


                                                      
--------------------------|--------------------------|
--------------------------|--------------------------|
--------------------------|--4--4--4--4--4--4--4--4--|
--2--2--2--2--2--2--2--2--|--------------------------|


                                                      
--------------------------|--------------------------|
--------------------------|-----------------------3/-|
--3--3--3--3--3--3--3--3--|--1--1--1--1--1--1--1-----|
--------------------------|--------------------------|


                                                             
----------------------------------|-------------------------|
--15--15--15--15--15--15--15--15--|--4----4--4--4--4--4--4--|
----------------------------------|-------------------------|
----------------------------------|-------------------------|


                                                                             
-------------------------|--1----1--1--1--1--1--1--|--3----3--3--1----1--1--|
--3----3--3--3--3--3--3--|-------------------------|------------------------|
-------------------------|-------------------------|------------------------|
-------------------------|-------------------------|------------------------|


                                                                              
-------------------------|--1----1--1--1--1--1--1--|--3----3--3--3--3--3--3--|
--4----4--4--4--4--4--4--|-------------------------|-------------------------|
-------------------------|-------------------------|-------------------------|
-------------------------|-------------------------|-------------------------|


                                                                              
--3--3--3--3--3--1-------|-------------------------|--1----1--1--1--1--1--1--|
--------------------4----|--4----4--4--4--4--4--4--|-------------------------|
-------------------------|-------------------------|-------------------------|
-------------------------|-------------------------|-------------------------|


                                                                              
--3----3--3--3--3--3--3--|--3--3--3--3--5----5--5--|--6----6--6--6--6--6--6--|
-------------------------|-------------------------|-------------------------|
-------------------------|-------------------------|-------------------------|
-------------------------|-------------------------|-------------------------|


                                                                               
--5----5--5--1--1--1--1--|--3----3--3--3--3--3--3--|--3--3--3--3--3--3--3--3--|
-------------------------|-------------------------|--------------------------|
-------------------------|-------------------------|--------------------------|
-------------------------|-------------------------|--------------------------|


                                                          
--6---------6---------6-----|--8---------8---------8-----|
-----8-8-8-----8-8-8-----8--|-----6-6-6-----6-6-6-----6--|
----------------------------|----------------------------|
----------------------------|----------------------------|


                                                                              
--10------------10------------10------|--11------------11------------11------|
------11-11-11------11-11-11------11--|------11-11-11------11-11-11------11--|
--------------------------------------|--------------------------------------|
--------------------------------------|--------------------------------------|


                                                                           
--10------------10------------10------|--8------------8------------8------|
------11-11-11------11-11-11------11--|-----10-10-10-----10-10-10-----10--|
--------------------------------------|-----------------------------------|
--------------------------------------|-----------------------------------|


                                                                               
--10----------------|------------------|------------------|------------------||
--8-----------------|------------------|------------------|------------------||
--------------------|------------------|------------------|------------------||
--------------------|------------------|------------------|------------------||

Can't get to much credits my friend helped me out. please rate
Comments