Rise Against - Like The Angel Chords & Tabs

 

Like The Angel Chords & Tabs

Rise Against Chords & Tabs

Version: 2 Type: Bass Tab 0 ratings
1 star 2 stars 3 stars 4 stars 5 stars
comments

Like The Angel Bass Tab

Band: Rise Against
Album: Revolutions per time
Tabbed By: ME

Hello Superposers !! haha Well... This is my secon tab i hope you superposers
enjoy i think is correct but if you contardict me fuck you haha
for correcting this tab blah blah blah luis_blk182@hotmail.com

Intro

G-6---6---6--8---8---8--/10-----10-------10---11-----11-------11---|
D--88--88--8--66--66--6----11-11---11-11---11---11-11---11-11---11-|
A------------------------------------------------------------------|
E------------------------------------------------------------------|

Intro
G-10-----10-------10----8-----8-----8------------------------------|
D--11-11----11-11----11--10-10-10-10-10-15-------------------------|
A---------------------------------------13-------------------------|
E------------------------------------------------------------------|

Verse

G----------------------------------|
D---------------4>>----------------|
A-1>>--3>>--4>>-----4>>--3>>--1>>--|  x2
E----------------------------------|

Chorus

G---------------------------|
D---------------------------|
A--4>>----------------------| X5
E------6>>--8>>>--2>>-4--6--|

Verse
[ Tab from: http://www.guitartabs.cc/tabs/r/rise_against/like_the_angel_btab_ver_2.html ]
G----------------------------------|
D---------------4>>----------------|
A-1>>--3>>--4>>-----4>>--3>>--1>>--|  x2
E----------------------------------|

Chorus

G---------------------------|
D---------------------------|
A--4>>----------------------| X5
E------6>>--4>>>--2>>-4--6--|


Play chorus in the solo

Verse

G----------------------------------|
D---------------4>>----------------|
A-1>>--3>>--4>>-----4>>--3>>--1>>--|  x2
E----------------------------------|

Chorus

G---------------------------|
D---------------------------|
A--4>>----------------------| X5
E------6>>--4>>>--2>>-4--6--|

Outro

G-6---6---6--8---8---8--/10-----10-------10---11-----11-------11---|
D--88--88--8--66--66--6----11-11---11-11---11---11-11---11-11---11-|
A------------------------------------------------------------------|
E------------------------------------------------------------------|


Intro
G-10-----10-------10----8-----8-----8------------------------------|
D--11-11----11-11----11--10-10-10-10-10-15-------------------------|
A---------------------------------------13-------------------------|
E------------------------------------------------------------------|
Comments