Rise Against - Like The Angel Chords & Tabs

 

Like The Angel Chords & Tabs

Rise Against Chords & Tabs

Version: 1 Type: Bass Tab 0 ratings
1 star 2 stars 3 stars 4 stars 5 stars
comments

Like The Angel Bass Tab

This is just that first bass intro part.
[ Tab from: http://www.guitartabs.cc/tabs/r/rise_against/like_the_angel_btab.html ]
G-6---6---6--8---8---8--/10-----10-------10---11-----11-------11---|
D--88--88--8--66--66--6----11-11---11-11---11---11-11---11-11---11-|
A------------------------------------------------------------------|
E------------------------------------------------------------------|

G-10-----10-------10----8-----8---8--6-----------------------------|
D--11-11----11-11----11---66---66--6-8-----------------------------|
A------------------------------------------------------------------|
E------------------------------------------------------------------|
Comments