Rise Against - Life Less Frightening Chords & Tabs

 

Life Less Frightening Chords & Tabs

Rise Against Chords & Tabs

Version: 1 Type: Bass Tab 0 ratings
1 star 2 stars 3 stars 4 stars 5 stars
comments

Life Less Frightening Bass Tab

Artist: Rise Against
Song: Life Less Frightening
Album: Siren Song of the Counter-Culture
Tabbed By: Steve Clark

Tune half-a-step down

Intro
G----------------------------------------------|
D-7>--------------------7>---------------------|
A-----8>-10>-0>--8>-10>-----8>-10>-------------|
E----------------------------------0>--1>-3>---|

         3x
G-----------|-------------|
D-----------|-------------|
A-0>--------|-------------| 2x
E-----1>-3>-|-0>--1>-3>---|

Verse
G-----------------------------------------------|
D-----------------------------------------------|
A-0>--8>-10>-0>--8>-10>-0>--8>-10>-7>--8>-10>---| 2x
E-----------------------------------------------|
[ Tab from: http://www.guitartabs.cc/tabs/r/rise_against/life_less_frightening_btab.html ]
Chorus
G----------------------------------------------------|
D----------------------------------------------------|
A-0>----3>-----0>----3>-7>-0>----3>----0>-8>-3>-7>---|
E----1>----3>-----1>----------1>----3>---------------|

Verse 2x
Chorus

Bridge
G------|---------------------------------------------|
D------|-7--7--7-/14--12--10--7--7--7-/14--12--10----|
A-0~---|--00-00-0---00--00--0--00-00-0---00--00--0---|
E------|---------------------------------------------|

                                              5x
-------------------------------------------------|
-/15--15--15-14--14--14-12--12--12--12--12--12---|
----00--00--0--00--00--0--00--00--00--00--00-----|
-------------------------------------------------|

G---------------------------------------------|
D-7--7--7-/14--12--10--7--7--7-/14--12--10----|
A--00-00-0---00--00--0--00-00-0---00--00--0---|
E---------------------------------------------|

G-------------------------------------|
D-/15--15--15-14--14--14--------------|
A----00--00--0--00--00--0-------------|
E-------------------------111111111---|

Chorus 2x

Outro
G-----|
D-----|
A-0---|
E-----|
Comments