Rise Against - Last Chance Blueprint Chords & Tabs

 

Last Chance Blueprint Chords & Tabs

Rise Against Chords & Tabs

Version: 1 Type: Bass Tab 0 ratings
1 star 2 stars 3 stars 4 stars 5 stars
comments

Last Chance Blueprint Bass Tab

intro x 2
  
|-6666-44-66-9-8-9-11-9-8-6666-44-66---------|
|--------------------------------------------|
|-------------------------------------0---2~-|
|---------------------------------------0----|

verse

|-------2-1--------------------2-1-4-2----------------6-4-2-1-----------|
|-----------2-----------------------------------------------------------|
|-4444--------2-0000-2222-4444---------0000-2222-4444---------0000-2222-|
|-----------------------------------------------------------------------|

|------6-4-9-8-----------|
|------------------------|
|-4444---------0000-2222-|
|------------------------|


chorus

|---------------------------------------------------------------|
|---------------------------------------------------------------|
|-00----22----4444444--00----22----4444444--00----22----4444444-|
|----00----22-------------00----22-------------00----22---------|

|----------------1-|
|------------2-4---|
|-0---2---4--------|
|---0---2----------|

verse
[ Tab from: http://www.guitartabs.cc/tabs/r/rise_against/last_chance_blueprint_btab.html ]
|-------2-1--------------------2-1-4-2----------------6-4-2-1-----------|
|-----------2-----------------------------------------------------------|
|-4444--------2-0000-2222-4444---------0000-2222-4444---------0000-2222-|
|-----------------------------------------------------------------------|

|------6-4-9-8-----------|
|------------------------|
|-4444---------0000-2222-|
|------------------------|

chorus

|---------------------------------------------------------------|
|---------------------------------------------------------------|
|-00----22----4444444--00----22----4444444--00----22----4444444-|
|----00----22-------------00----22-------------00----22---------|

|------------|
|------------|
|-0---2---4~-|
|---0---2----|

bridge

|-------------------|
|-------------------|
|-44---44---44---44-|
|-------------------|

|----------------|
|----------2-1---|  x4
|-44444444-----2-|
|----------------|

|-------------------------|
|-------------------------| x4
|-4444444-0-------0-2-0---|
|-----------4-2-4-------4-|

outro/chorus

|---------------------------------------------------------------|
|---------------------------------------------------------------|
|-00----22----4444444--00----22----4444444--00----22----4444444-|
|----00----22-------------00----22-------------00----22---------|

|------------|
|------------|
|-0---2---4~-|
|---0---2----|
Comments