Rise Against - Heaven Knows Chords & Tabs

 

Heaven Knows Chords & Tabs

Rise Against Chords & Tabs

Version: 1 Type: Tab 0 ratings
1 star 2 stars 3 stars 4 stars 5 stars
comments

Heaven Knows Tab

   
Heaven Knows- RISE AGAINST
Standard Tuning (E A D G B E)

Intro (Both)
E|-------------------------------------------|
B|-------------------------------------------|
G|-6666---------------------6---6666-9-9-9-8-|
D|-6666-6666-44-2222-4444-6-6-6-6666-9-9-9-8-|
A|-4444-6666-44-2222-4444-6-4-6-4444-7-7-7-6-|
E|------4444-22-0000-2222-4---4--------------|

Lead
E|----------------------------------------|
B|----------------------------------------|
G|-10-10-10-14-14-14-13-13-13-11-11-11-11-|
D|-x--x--x--x--x--x--x--x--x--x--x--x--x--|
A|-8--8--8--12-12-12-11-11-11-9--9--9--9--|
E|----------------------------------------|

Intro again.

Both
E|-----------------------------|
B|-----------------------------|
G|-------------444-------------|
D|-222-444-666-444-22222222222-|
A|-222-444-666-222-22222222222-|
E|-000-222-444-----00000000000-|
                  PM----------
Lead
E|------------------------------|
B|------------------------------|
G|-888-999-11-11-11-14-14-14-13-|
D|-xxx-xxx-x--x--x--x--x--x--x--|
A|-666-777-9--9--9--12-12-12-11-|
E|------------------------------|

Verse Pt.1 (Rhythm)
E|-----------------|
B|-----------------|
G|-6-6-6-6-6-6-6-6-|
D|-6-6-6-6-6-6-6-6-|
A|-4-4-4-4-4-4-4-4-|
E|-----------------|

Verse (Both)                    Lead
E|------------------------| |----------|
B|---------------66666666-| |----------|
G|--------44-666-66666666-| |-9-8------|
D|-777-44-44-666-66666666-| |-----9-11-|
A|-777-44-22-666-44444444-| |----------|
E|-555-22----444----------| |----------|

Verse Pt.1 (Rhythm)
E|-----------------|
B|-----------------|
G|-6-6-6-6-6-6-6-6-|
D|-6-6-6-6-6-6-6-6-|
A|-4-4-4-4-4-4-4-4-|
E|-----------------|

Verse (Both)                    Lead
E|------------------------| |-------|
B|---------------66666666-| |-------|
G|--------44-666-66666666-| |-9-8---|
D|-777-44-44-666-66666666-| |-----9-|
A|-777-44-22-666-44444444-| |-------|
E|-555-22----444----------| |-------|

Pre-Chorus
E|-------------------------------------|
B|-------------------------------------|
G|-------------------------------------| Pick Slide
D|-77777777-99999999-77777777-99999999-|
A|-77777777-99999999-77777777-99999999-|
E|-55555555-77777777-55555555-77777777-|

Chorus                       Lead
E|---------------------|    |-------------------------|
B|---------------------|    |-------------------------|
G|-6666-6666-----------|then|-9999-8888-10101010-9999-|
D|-6666-6666-7777-9999-|    |-xxxx-xxxx-x-x-x-x--xxxx-|
A|-4444-4444-7777-9999-|    |-7777-6666-8-8-8-8--7777-|
E|-----------5555-7777-|    |-------------------------|

E|---------------------|    |----------|
B|---------------------|    |----------|
G|-6666-6666-----------| x3 |-22222222-|
D|-6666-6666-7777-9999-|    |-22222222-|
A|-4444-4444-7777-9999-|    |-00000000-|
E|-----------5555-7777-|    |----------|
                             PM=======
Lead
E|------------------------------|
B|------------------------------|
G|-888-999-11-11-11-14-14-14-13-|
D|-xxx-xxx-x--x--x--x--x--x--x--|
A|-666-777-9--9--9--12-12-12-11-|
E|------------------------------|

Verse Pt.1 (Rhythm)
E|-----------------|
B|-----------------|
G|-6-6-6-6-6-6-6-6-|
D|-6-6-6-6-6-6-6-6-|
A|-4-4-4-4-4-4-4-4-|
E|-----------------|
[ Tab from: http://www.guitartabs.cc/tabs/r/rise_against/heaven_knows_tab.html ]
Verse (Both)                    Lead
E|------------------------| |----------|
B|---------------66666666-| |----------|
G|--------44-666-66666666-| |-9-8------|
D|-777-44-44-666-66666666-| |-----9-11-|
A|-777-44-22-666-44444444-| |----------|
E|-555-22----444----------| |----------|

Verse Pt.1 (Rhythm)
E|-----------------|
B|-----------------|
G|-6-6-6-6-6-6-6-6-|
D|-6-6-6-6-6-6-6-6-|
A|-4-4-4-4-4-4-4-4-|
E|-----------------|

Verse (Both)                    Lead
E|------------------------| |-------|
B|---------------66666666-| |-------|
G|--------44-666-66666666-| |-9-8---|
D|-777-44-44-666-66666666-| |-----9-|
A|-777-44-22-666-44444444-| |-------|
E|-555-22----444----------| |-------|

Pre-Chorus
E|-------------------------------------|
B|-------------------------------------|
G|-------------------------------------| Pick Slide
D|-77777777-99999999-77777777-99999999-|
A|-77777777-99999999-77777777-99999999-|
E|-55555555-77777777-55555555-77777777-|

Chorus                       Lead
E|---------------------|    |-------------------------|
B|---------------------|    |-------------------------|
G|-6666-6666-----------|then|-9999-8888-10101010-9999-|
D|-6666-6666-7777-9999-|    |-xxxx-xxxx-x-x-x-x--xxxx-|
A|-4444-4444-7777-9999-|    |-7777-6666-8-8-8-8--7777-|
E|-----------5555-7777-|    |-------------------------|

E|---------------------|    |----------|
B|---------------------|    |----------|
G|-6666-6666-----------| x3 |-22222222-|
D|-6666-6666-7777-9999-|    |-22222222-|
A|-4444-4444-7777-9999-|    |-00000000-|
E|-----------5555-7777-|    |----------|
                             PM=======
Lead
E|------------------------------| |----|
B|------------------------------| |----|
G|-888-999-11-11-11-14-14-14-13-| |-6~-|
D|-xxx-xxx-x--x--x--x--x--x--x--| |-6~-|
A|-666-777-9--9--9--12-12-12-11-| |-4~-|
E|------------------------------| |----|

Bass Bridge

Lead Bridge
E|----------------------------|
B|----------------------------|
G|-6-44~-4-8-6~---6-44~-9-8-9-|
D|-6-44~-4-8-6~---6-44~-9-8-9-|
A|-4-22~-2-6-4~---4-22~-7-6-7-|
E|----------------------------|

Lead
E|-------------------------------------------------------------|
B|-------------------------------------------------------------|
G|-9-99-999-111111111111-8-88-88888-9-99-999-8-88-888----------|  x4
D|-9-99-999-111111111111-8-88-88888-9-99-999-8-88-888-9-99-999-|
A|-7-77-777-9-9-9-9-9-9--6-66-66666-7-77-777-6-66-666-9-99-999-|
E|----------------------------------------------------7-77-777-|

Rhythm
E|-----------------------------------------|   |-------------------------|
B|-----------------------------------------|   |-------------------------|
G|-6-66-6-66-6-66-6-66-4-44-4-44-4-44-4-44-|x2 |-4~-----2~-----4~-----2~-| x2
D|-6-66-6-66-6-66-6-66-4-44-4-44-4-44-4-44-|   |-4~-----2~-----4~-----2~-|
A|-4-44-4-44-4-44-4-44-2-22-2-22-2-22-2-22-|   |-2~-----0~-----2~-----0~-|
E|-----------------------------------------|   |-------------------------|

Lead
E|--------------------------------------|
B|--------------------------------------| 
G|-9-9-999-8-8-888-8-9-12-8-9-13-8-9-14-|  x3
D|-9-9-999-8-8-888-8-9-12-8-9-13-8-9-14-|
A|-7-7-777-6-6-666-6-7-10-6-7-11-6-7-12-|
E|--------------------------------------|

Rhythm
E|--------------------------|
B|--------------------------|
G|-6-6-666-8-8-888-4-4-4444-|
D|-6-6-666-8-8-888-4-4-4444-|
A|-4-4-444-6-6-666-2-2-2222-|
E|--------------------------|

End
E|----------|
B|----------|
G|-9~-8~----|
D|-9~-8~-9~-|
A|-7~-6~-9~-|
E|-------7~-|
Comments