Rise Against - Heaven Knows Chords & Tabs

 

Heaven Knows Chords & Tabs

Rise Against Chords & Tabs

Version: 1 Type: Bass Tab 0 ratings
1 star 2 stars 3 stars 4 stars 5 stars
comments

Heaven Knows Bass Tab

Intro
G|--------------------------------------------------------|
D|--------------------------------------------------------|
A|44-4-44-4-------------------------44-4-44-4-66-666-0>--|
E|---------55-5-42-00-0-00-0-22-2-44----------------5-----|
Listen to get the timing of that last A#
G|--------------------------------------------------------|
D|--------------------------------------------------------|
A|44-4-44-4-------------------------44-4-44-4-66-666-0>-2|
E|---------55-5-42-00-0-00-0-22-2-44----------------5-----|

First Verse x2    
G|--------------------------------------------------------|
D|--------------------------------------------------------|
A|4-4>-------------4>-7-6-4-4>-------------4>-6-7---------|
E|----5-5-52-7-7-74-----------5-5-52-7-7-74---------------|

Pre Chorus
2x
G|--------------------------------------------------------|
D|--------------------------------------------------------|
A|-0>-2>--------------------------------------------------|
E|--------------------------------------------------------|

Chorus 	   
[ Tab from: http://www.guitartabs.cc/tabs/r/rise_against/heaven_knows_btab.html ]
G|----------------------------------| 
D|----------------------------------| 
A|4-44-----4-44---------------------| 
E|----02-4-----02-4-0000000022222222| 


G|---------------------------------| 
D|---------------------------------| 
A|4-44-----4-44----5555555577777777| 
E|----02-4-----02-4----------------|

G|----------------------------------|
D|----------------------------------|
A|4-44-----4-44---------------------|
E|----02-4-----02-4-0000000022222222|

G|------|
D|------|
A|-0>-2>|
E|------|

Second Verse This one is tricky with that slide down to the 16th fret. Listen for the timing.

G|--------------------------------------------------------|
D|--------------------------------------------------------|
A|4-4>-------------4>7654>-/16>---------------------------|
E|----5-5-52-7-7-75------------5-5-52-7-7-75--------------|



Bridge part 1
G|----------------------------------|
D|----------------------------------|
A|4-2-00000000--------22222222-4642-|
E|------------11111111--------------|

Repeat Allot

G|-----------------------------|
D|-----------------------------|
A|00000000--------22222222-4466|
E|--------11111111-------------|

Closing

A|0---------------2|
E|--------1--------|
Comments