Rise Against - Hairline Fracture Chords & Tabs

 

Hairline Fracture Chords & Tabs

Rise Against Chords & Tabs

Version: 2 Type: Tab 0 ratings
1 star 2 stars 3 stars 4 stars 5 stars
comments

Hairline Fracture Tab

   
-------------------------------------------------------------------------------
                             Hairline Fracture - Rise Against
-------------------------------------------------------------------------------
Tabbed by: Jensen Steady
E-mail: jensensteady@gmail.com

Tuning: Drop D

************************************
| *   palm mute
| /   slide up
| \   slide down
| h   hammer-on
| p   pull-off
| ~   vibrato
| +   harmonic
| x   Mute note
| b   Bend
| pb  Pre-bend
| br  Bend release
| pbr Pre-bend release
| brb Bend release bend

************************************

Intro:
e|----------------------------------x----------------------------------------|
B|----------------------------------x----------------------------------------|
G|--3-------5-------3-------5-------x----------------------------------------|
D|--3-X16---5-X16---3-X16---5-X10---x-X6-------------------------------------|
A|--1-------3-------1-------3-------x----------------------------------------|
E|----------------------------------x----------------------------------------|

e|------------x-x-x------------x-x-x------------x-x-x--------------x-x-x-----|
B|------------x-x-x------------x-x-x------------x-x-x--------------x-x-x-----|
G|--3-3-5-7-7-x-x-x--7-7-8-7-7-x-x-x--3-3-5-7-7-x-x-x--10-10-7-5-5-x-x-x-----|
D|--3-3-5-7-7-x-x-x--7-7-8-7-7-x-x-x--3-3-5-7-7-x-x-x--10-10-7-5-5-x-x-x-----|
A|--1-1-3-5-5-x-x-x--5-5-6-5-5-x-x-x--1-1-3-5-5-x-x-x--8--8--5-3-3-x-x-x-----|
E|------------x-x-x------------x-x-x------------x-x-x--------------x-x-x-----|

e|------------x-x-x------------x-x-x------------x-x-x------------------------|
B|------------x-x-x------------x-x-x------------x-x-x------------------------|
G|--3-3-5-7-7-x-x-x--7-7-8-7-7-x-x-x--3-3-5-7-7-x-x-x--7-7-7-8-10-7-5--------|
D|--3-3-5-7-7-x-x-x--7-7-8-7-7-x-x-x--3-3-5-7-7-x-x-x--7-7-7-8-10-7-5--------|
A|--1-1-3-5-5-x-x-x--5-5-6-5-5-x-x-x--1-1-3-5-5-x-x-x--5-5-5-6-8--5-3--------|
E|------------x-x-x------------x-x-x------------x-x-x------------------------|

Verse:
e|---------------------------------------------------------------------------|
B|---------------------------------------------------------------------------|
G|---------------------------------------------------------------------------|
D|--5-----8-----1-----3-----5-----8-----1-----3------------------------------|
A|--5-X8--8-X8--1-X8--3-X8--5-X8--8-X8--1-X8--3-X8---------------------------|
E|--5-----8-----1-----3-----5-----8-----1-----3------------------------------|
    *     *     *     *     *     *     *     *
e|---------------------------------------------------------------------------|
B|---------------------------------------------------------------------------|
G|---------------------------------------------------------------------------|
D|--5-----8-----1-----3-----5-----8-----1-----3------------------------------|
A|--5-X8--8-X8--1-X8--3-X8--5-X8--8-X8--1-X8--3-X8---------------------------|
E|--5-----8-----1-----3-----5-----8-----1-----3------------------------------|

Pre-chorus:
e|---------------------------------------------------------------------------|
B|---------------------------------------------------------------------------|
G|--3------5------3------5---------------------------------------------------|
D|--3-X16--5-X16--3-X16--5-X8------------------------------------------------|
A|--1------3------1------3---------------------------------------------------|
E|---------------------------------------------------------------------------|

Chorus:
e|---------------------------------------------------------------------------|
B|---------------------------------------------------------------------------|
G|--3-----5-----7-----5-------3-----7-----8-----10---------------------------|
D|--3-X4--5-X4--7-X4--5-X4----3-X4--7-X4--8-X4--10-X4------------------------|
A|--1-----3-----5-----3-------1-----5-----6-----8----------------------------|
E|---------------------------------------------------------------------------|
[ Tab from: http://www.guitartabs.cc/tabs/r/rise_against/hairline_fracture_tab_ver_2.html ]
                                                                                   X2
   
e|---------------------------------------------------------------------------|                    
B|---------------------------------------------------------------------------|
G|--3-----5-----7-----3-------8-----3----------------------------------------|
D|--3-X4--5-X4--7-X4--3-X4----8-X8--3-X8-------------------------------------|
A|--1-----3-----5-----1-------6-----1----------------------------------------|
E|---------------------------------------------------------------------------|



e|---------------------------------------------------------------------------|
B|---------------------------------------------------------------------------|
G|--3--5---8-10-7-5----------------------------------------------------------|
D|--3--5---8-10-7-5----------------------------------------------------------|
A|--1--3---6-8--5-3----------------------------------------------------------|
E|---------------------------------------------------------------------------|


Repat: Verse
       Pre-chorus
       Chorus/except for ending:
e|---------------------------------------------------------------------------|
B|---------------------------------------------------------------------------|
G|--3------------------------------------------------------------------------|
D|--3------------------------------------------------------------------------|
A|--1--1-X32-----------------------------------------------------------------|
E|---------------------------------------------------------------------------|

Bridge:
e|---------------------------------------------------------------------------|
B|---------------------------------------------------------------------------|
G|--7------3-------7------3------5------3------5------3----------------------|
D|--7-X16--3-X16---7-X16--3-X16--5-X16--3-X16--5-X16--3-X16------------------|
A|--5------1-------5------1------3------1------3------1----------------------|
E|---------------------------------------------------------------------------|
    *      *       *      *      *      *      *
e|---------------------------------------------------------------------------|
B|--8-7-8-7-8-7-8-7-8-7-8-7-8-7-8-7-8p7--------------------------------------|
G|--------------------------------------8--8-7-5-----------------------------|  X3
D|---------------------------------------------------------------------------|                  
A|---------------------------------------------------------------------------|
E|---------------------------------------------------------------------------|

e|---------------------------------------------------------------------------|
B|---------------------------------------------------------------------------|
G|--5-5-3--------------------------------------------------------------------|
D|--5-5-3-X3-----------------------------------------------------------------|
A|--3-3-1--------------------------------------------------------------------|
E|---------------------------------------------------------------------------|

Repeat: Chorus

Outro: 
e|---------------------------------------------------------------------------|
B|---------------------------------------------------------------------------|
G|--3-----5-----7-----5-------3-----7-----8-----10---------------------------|
D|--3-X4--5-X4--7-X4--5-X4----3-X4--7-X4--8-X4--10-X4------------------------|
A|--1-----3-----5-----3-------1-----5-----6-----8----------------------------|
E|---------------------------------------------------------------------------|

                                                                                   
   
e|---------------------------------------------------------------------------|                    
B|---------------------------------------------------------------------------|
G|--3-----5-----7-----3-------8--5--3-3-3------------------------------------|
D|--3-X4--5-X4--7-X4--3-X4----8--5--3-3-3------------------------------------|
A|--1-----3-----5-----1-------6--3--1-1-1------------------------------------|
E|---------------------------------------------------------------------------|
Let the ending ring out. Good luck!
Comments