Rise Against - Great Awakening Chords & Tabs

 

Great Awakening Chords & Tabs

Rise Against Chords & Tabs

Version: 1 Type: Tab 0 ratings
1 star 2 stars 3 stars 4 stars 5 stars
comments

Great Awakening Tab

Band- Rise Against
Song- Great Awakening

*=X6
#=X8-9
m=palm mute

verse
--- ----------- --------------------|
--- ----------- --------------------|
-4- -5---8----- X7 -5---8--8-10-12--|
-4- -5-5-8-8-6- -5-5-8--8-10-12-----|
-2- -3-5-6-8-6- -3-5-6--6--8-10-----|
--- ---3---6-4- ---3----------------|

chorus
----------------------------------------------------|
---*---------*-------*---------*------------*-----*-|
-13---*-13-12----*-13---*-13-12-----------13---*-5--|
-13--8--13-12--10--13--8--13-12--10-8-6-5-13--8--5--|
-11--8--11-10--10--11--8--11-10-----------11--8--3--|
-----6----------8------6----------------------6-----|

verse

chorus
[ Tab from: http://www.guitartabs.cc/tabs/r/rise_against/great_awakening_tab.html ]
bridge
---m--m-m-m-m----------------------|
----*------------------*---------*-|
-4-5--5-5-5--*-13-13-12--13-13-12--| X2
-4-5--5-5-5-3--13-13-12--13-13-12--|
-2-3--3-3-3-3--11-11-10--11-11-10--|
------------1----------------------|

--------------------------|
--------------------#---#-|
-8---5---4-4-5---4-5--12--|
-8-8-5---4-4-5---4-x---x--|
-6-8-3---2-2-3---2-3--10--|
---6----------------------|

end chorus
--------------------------------------------------------|
---*---------*-------*---------*------------*-----*-----|
-13---*-13-12----*-13---*-13-12-------8-7-13---*-5--4-5-|
-13--8--13-12--10--13--8--13-12--10-8-----13--8--5--4-5-|
-11--8--11-10--10--11--8--11-10-----------11--8--3--2-3-|
-----6----------8------6----------------------6---------|
Comments