Rise Against - Give It All Chords & Tabs

 

Give It All Chords & Tabs

Rise Against Chords & Tabs

Version: 1 Type: Tab 0 ratings
1 star 2 stars 3 stars 4 stars 5 stars
comments

Give It All Tab

Hey This is my tab for give it all by rise against. Its Pretty close to perfect well 
and rate it please!  (= are separaters)
Tab Done By Ryan Hepple Aka Sk8punk49

Intro
e|------------------|
B|------------------|
G|------------------|
D|-7-3-6-4--7-3-6-4-|
A|-4-4-4-4--4-4-4-4-|
E|------------------|
[ Tab from: http://www.guitartabs.cc/tabs/r/rise_against/give_it_all_tab.html ]
Verse1
|-------------------------------|
|-------------------------------|
|------------777--------777-999-|
|-44--44--44-777-44--44-777-999-|
|-44--44--44-555-44--44-555-777-|
|-22xx22xx22-----22xx22---------|
============================================================================
|-------------------------------|
|-------------------------------|
|------------777--------777-999-|
|-44--44--44-777-44--44-777-999-|
|-44--44--44-555-44--44-555-777-|
|-22xx22xx22-----22xx22---------|
============================================================================
|------------------------------|
|------------------------------|
|-----------777--------777-999-|
|4444444444-777-444444-777-999-|
|4444444444-555-444444-555-777-|
|2200220022-----220022---------|
============================================================================
|------------------------------|
|------------------------------|
|-----------777--------777-999-|
|4444444444-777-444444-777-999-|
|4444444444-555-444444-555-777-|
|2200220022-----220022---------|
============================================================================
Chorus
|----------------------------------------|
|----------------------------------------|
|222222222---------------------777777777-|
|222222222-222222222-444444444-777777777-|
|----------222222222-444444444-555555555-|
|--------------------222222222-----------|
============================================================================
|----------------------------------------|
|----------------------------------------|
|222222222---------------------777777777-|
|222222222-222222222-444444444-777777777-|
|----------222222222-444444444-555555555-|
|--------------------222222222-----------|
============================================================================
|-------------------------------|
|-------------------------------|
|------------777--------777-999-|
|-44--44--44-777-44--44-777-999-|
|-44--44--44-555-44--44-555-777-|
|-22xx22xx22-----22xx22---------|
============================================================================
|-------------------------------|
|-------------------------------|
|------------777--------777-999-|
|-44--44--44-777-44--44-777-999-|
|-44--44--44-555-44--44-555-777-|
|-22xx22xx22-----22xx22---------|
============================================================================
PM.........     ......
|------------------------------|
|------------------------------|
|-----------777--------777-999-|
|4444444444-777-444444-777-999-|
|4444444444-555-444444-555-777-|
|2200220022-----220022---------|
============================================================================
PM.........     ......
|------------------------------|
|------------------------------|
|-----------777--------777-999-|
|4444444444-777-444444-777-999-|
|4444444444-555-444444-555-777-|
|2200220022-----220022---------|
============================================================================
Chorus
|----------------------------------------|
|----------------------------------------|
|222222222---------------------777777777-|
|222222222-222222222-444444444-777777777-|
|----------222222222-444444444-555555555-|
|--------------------222222222-----------|
============================================================================
|----------------------------------------|
|----------------------------------------|
|222222222---------------------777777777-|
|222222222-222222222-444444444-777777777-|
|----------222222222-444444444-555555555-|
|--------------------222222222-----------|
============================================================================
|------------------------------------|
|------------------------------------|
|------------777777-222222-----------|
|-7-6-444444-777777-222222-7777-6666-|
|-7-6-444444-555555-222222-7777-6666-|
|-5-4-222222---------------5555-4444-|
===========================================================================
|-----------------------------------|
|-----------------------------------|
|--------777777-222222--------------|
|-444444-777777-222222-77-66--------|
|-444444-555555-222222-77-66--------|
|-222222---------------55-44--------|
============================================================================
PM...............................
|-------------------------------|
|-------------------------------|
|-------777777------------------|
|444444-777777-222222-7777-6666-|
|444444-555557-222222-7777-6666-|
|222222---------------5555-4444-|
============================================================================
PM........................
|--------------------------------|
|--------------------------------|
|-------777777-------------------|
|444444-777777-22222222222-------|
|444444-555557-22222222222-------|
|222222--------------------------|
============================================================================
Chorus
|----------------------------------------|
|----------------------------------------|
|222222222---------------------777777777-|
|222222222-222222222-444444444-777777777-|
|----------222222222-444444444-555555555-|
|--------------------222222222-----------|
============================================================================
|----------------------------------------|
|----------------------------------------|
|222222222---------------------777777777-|
|222222222-222222222-444444444-777777777-|
|----------222222222-444444444-555555555-|
|--------------------222222222-----------|

============================================================================
|----------------------------------------|
|----------------------------------------|
|222222222---------------------777777777-|
|222222222-222222222-444444444-777777777-|
|----------222222222-444444444-555555555-|
|--------------------222222222-----------|
============================================================================
|---------------------------------------|
|---------------------------------------|
|222222222------------------------------|
|222222222-222222222-4~~~~~~------------|
|----------222222222-4~~~~~~------------|
|--------------------2~~~~~~------------|

And Thats It!! Tab Done By Ryan Hepple Aka Sk8punk49
Comments