Rise Against - Generation Lost Chords & Tabs

 

Generation Lost Chords & Tabs

Rise Against Chords & Tabs

Version: 1 Type: Bass Tab 0 ratings
1 star 2 stars 3 stars 4 stars 5 stars
comments

Generation Lost Bass Tab

Band- Rise Against
Song- Generation Lost

~ = let ring      / = slide up

Intro:(0:00)                                                                              2x
G|--------------------------------------------------------------------------------------------------|
D|--------------------------------------------------------------------------------------------------|
A|-111111111111-444444------111111111111-444444-----111111111111-444444-----------------------------|
E|---------------------44-----------------------44-----------------------44-11-2222-/16-16-16-16-16-|
 The second time you play the intro add  A 1~

Then:(0:30)   3x              1x
G|------------------|------------------|
D|------------------|------------------|
A|-1----------------|-----111--444-----|
E|---21212-4-4-121--|-222----------111-|
[ Tab from: http://www.guitartabs.cc/tabs/r/rise_against/generation_lost_btab.html ]
Chorus:(0:36)
G|---------------------------------------------------------------------------------------------------|
D|---------------------------------------------------------------------------------------------------|
A|-111111111111-444444------111111111111-444444-------111111111111-444444----------------------------|
E|---------------------44-----------------------44-------------------------44-11-2222/16-16-16-16-16-|

Breakdown :(2:00)
G|---------------------|
D|--------------6~-6-6-|
A|----------4-4--------|
E|--2~-2-4~------------|

Bridge :(play from 2:47 to the end)
G|-------------|--------------------------------------------------------|------------6666-55-66-8888-6-5-3-|
D|-------------|--------------------------------------------------------|----------------------------------|
A|-------------|111111--------444444--------111111-444444---------------|111111-444444---------------------|
E|-2222-444444-|-------222222--------111111---------------222222-444444-|----------------------------------|
Comments