Rise Against - Fix Me Chords & Tabs

 

Fix Me Chords & Tabs

Rise Against Chords & Tabs

Version: 1 Type: Tab

Fix Me Tab

Artist: Rise Against
Song: Fix Me
Album: Tony Hawks American Wasteland Soundtrack
Tuning: Standard

Here is a tab for the Rise Against song on the Tony Hawk American Wasteland
game. It is also on the soundtrack. Enjoy.

Intro/Verse

e|------------------------------------------------------------------------|
B|------------------------------------------------------------------------|
G|------------------------------------------------------------------------|
D|---7777--9999--7777--10101010-------------------------------------------|
A|---7777--9999--7777--10101010-------------------------------------------|
E|---5555--7777--5555--8-8-8-8--------------------------------------------|

(for this time play it 6 times, 2 times of which is the intro)

Chorus
[ Tab from: http://www.guitartabs.cc/tabs/r/rise_against/fix_me_tab.html ]
e|-------------------------------------------------------------------------|
B|-------------------------------------------------------------------------|
G|-------------------------------------------------------------------------|
D|--7-7---7-7-7---7-6-5---7-7-77-7-7---------------------------------------|
A|--7-7---7-7-7---7-6-5---7-7-77-7-7---------------------------------------|
E|--5-5---5-5-5---5-4-3---5-5-55-5-5---------------------------------------|

(just follow the singing when playing the the chords)

Then, just play the intro/verse riff 4 times again, then play the chorus again,
but after the chorus, end on:

e|------------|
B|------------|
G|------------|
D|--7--7------|  (these chords are on the words "fix it")
A|--7--7------|
E|--5--5------|

If there are any queries, email me at supertom24trivium@hotmail.co.uk
Thanx!!