Rise Against - Faint Resemblance Chords & Tabs

 

Faint Resemblance Chords & Tabs

Rise Against Chords & Tabs

Version: 1 Type: Tab 0 ratings
1 star 2 stars 3 stars 4 stars 5 stars
comments

Faint Resemblance Tab

Band- Rise Against
Song- Faint Resemblance

. - palm mute
/ - slide

Intro/Verse
E-----------------------------------------------------|
B-----------------------------------------------------|
G---------5555----------------------------------------|
D---7777--5555--3333---7-5---X5-----------------------|
A---7777--3333--3333---7-5----------------------------|
E---5555--------1111---5-3----------------------------|

Chorus
E----------------------------------------------------|
B----------------------------------------------------|
G-------55-----------------------55------------------|
D-3333--55--77--3333--55-77-3333-55-77--3333-5~------|
A-3333--33--77--3333--55-77-3333-33-77--3333-5~------|
E-1111------55--1111--33-55-1111----55--1111-3~------|

Verse x5

Choruse x1

Bridge: idk the strumming for the palm mute part
E----------------------------------------------------|
B----------------------------------------------------|
G----------------------------------------------------|  X2
D-333333333-555555555-----7-5-3-5--------------------|
A-333333333-555555555-x2--7-5-3-5--------------------|
E-111111111-333333333-----5-3-1-3--------------------|
  ......... .........

Bridge(Cont.):
E-------------------------------------------------------------------|
B-------------------------------------------------------------------|
G--9999912121212121414141414-14-12-9999912121212121010101010-5-7----|
D--xxxxx-x-x-x-x-x-x-x-x-x-x--x--x-xxxxx-x-x-x-x-x-x-x-x-x-x-x-x----|
A--7777710101010101212121212-12-10-777771010101010-8-8-8-8-8-3-5----|
E-------------------------------------------------------------------|

Chorus x1

End(guitar 1):
[ Tab from: http://www.guitartabs.cc/tabs/r/rise_against/faint_resemblance_tab.html ]
E---------------------------------------------------------------|
B---------------------------------------------------------------|
G-guitar 2----------9999999/7/9999999/12/999999-121212101010999-|
D-does its thing----xxxxxxx/x/xxxxxxx/-x/xxxxxx--x-x-x-x-x-xxxx-|
A--twice then...----7777777/5/7777777/10/777777-101010-8-8-8777-|
E---------------------------------------------------------------|

E---------------------------------------------------------------------------|
B---------------------------------------------------------------------------|
G-1414141414141414/12/1414141414141414/16/141414141414---171717161616141414-|
D--x-x-x-x-x-x-x-x/-x/x-x-x-x-x-x-x-x-/-x/x-x-x-x-x-x----x-x-x-x-x-x-x-x-x--|
A-1212121212121212/10/1212121212121212/14/121212121212---151515141414121212-|
E---------------------------------------------------------------------------|

E----------------------------------------------------------------------------|
B----------------------------------------------------------------------------|
G-171717161616141414--171717161616141414--1919191917171716161414141616161212-|
D--x-x-x-x-x-x-x-x-x---x-x-x-x-x-x-x-x-x---x-x-x-x-x-x-x-x-x-x-x-x-x-x-x-x-x-|
A-151515141414121212--151515141414121212--1717171715151514141212121414141010-|
E----------------------------------------------------------------------------|

E----------------------------------------------------------------------------|
B----------------------------------------------------------------------------|
G-12/14141414141414 10/12121212121212-7/10101010101010--7777-10101010--------|
D--x/-x-x-x-x-x-x-x--x/-x-x-x-x-x-x-x-x/-x-x-x-x-x-x-x--xxxx--x-x-x-x--7~~~--|
A-10/12121212121212--8/10101010101010-5/-8-8-8-8-8-8-8--5555--8-8-8-8--7~~~--|
E----------------------------------------------------------------------5~~~--|

End(Guitar 2):
E----------------------------------------------------|
B----------------------------------------------------|
G-------------------------------555------------------|
D-7777777777777777-55555555-333-555------------------|
A-7777777777777777-55555555-333-333------------------|
E-5555555555555555-33333333-111----------------------|
Comments