Rise Against - Faint Resemblance Chords & Tabs

 

Faint Resemblance Chords & Tabs

Rise Against Chords & Tabs

Version: 1 Type: Bass Tab 0 ratings
1 star 2 stars 3 stars 4 stars 5 stars
comments

Faint Resemblance Bass Tab

   
Band- Rise Against
Song- Faint Resemblance

Symbols:
>     repeat note

Verse
G--------4x----------|-----------|
D--------------------|-----------|
A-33-3---------3>----|-33-3------|
E------33-3-5>----1>-|------33-3-|

Chorus
G----3x----|------|
D----------|------|
A----33----|------|
E-1>----33-|-1>-3-|

- end Chorus with:
E-5-
[ Tab from: http://www.guitartabs.cc/tabs/r/rise_against/faint_resemblance_btab.html ]
- play Verse
- play Chorus

Bridge 
G---------2x-----------|---------4x---------|
D----------------------|--------------------|
A-------------33---3---|----3>----33-3------|
E-1>-3>-1>-3>----3---3-|-5>----1>------33-3-|

- play Chorus

Instrumental Outro
G--------4x--------|---|
D------------------|---|
A---------------33-|---|
E-5>-3>-000-111----|-5-|
Comments