Rise Against - Everchanging Chords & Tabs

 

Everchanging Chords & Tabs

Rise Against Chords & Tabs

Version: 1 Type: Bass Tab 0 ratings
1 star 2 stars 3 stars 4 stars 5 stars
comments

Everchanging Bass Tab

Band- Rise Against
Song- Everchanging

First Verse - Note:  Wait for the guitar to play its riff twice.
G|---------------------------------------------------------------------|
D|---------------------------------------------------------------------|
A|-0-0-0-0-0-0-0-0-------------------3-3-3-3-3-3-3-3-------------------| x1
E|------------------1-1-1-1-1-1-1-1-------------------3-3-3-3-3-3-3-3--|

G|---------------------------------------------------------------------|
D|------------------3-3-3-3-3-3-3h5-------------------5-5-5-5-5-5-5-5--|
A|-0-0-0-0-0-0-0-0-------------------3-3-3-3-3-3-3-3-------------------| x1
E|---------------------------------------------------------------------|

Second Verse
G|---------------------------------------------------------------------|
D|---------------------------------------------------------------------|
A|-0-0-0-0-0-0-0-0-------------------3-3-3-3-3-3-3-3-------------------| x1
E|------------------1-1-1-1-1-1-1-1-------------------3-3-3-3-3-3-3-3--|

G|---------------------------------------------------------------------|
D|------------------3-3-3-3-3-3-3h5-------------------5-5-5-5-5-5-5-5--|
A|-0-0-0-0-0-0-0-0-------------------3-3-3-3-3-3-3-3-------------------| x1
E|---------------------------------------------------------------------|

G|---------------------------------------------------------------------|
D|---------------------------------------------------------------------|
A|-0-0-0-0-0-0-0-0-------------------3-3-3-3-3-3-3-3-------------------| x1
E|------------------1-1-1-1-1-1-1-1-------------------3-3-3-3-3-3-3-3--|

G|---------------------------------------------------------------------|
D|------------------3-3-3-3-3-3-3h5-------------------5-5-5-5-5-5-5-5--|
A|-0-0-0-0-0-0-0-0-------------------3-3-3-3-3-3-3-3-------------------| x1
E|---------------------------------------------------------------------|

Pre-Chorus - Note:  Wait for guitar to play its riff once.
G|-------------------------------------------------------------------|
D|-5x----------------------------------------------------------------|
A|-------------------------------------------------------------------| x1
E|-------------------------------------------------------------------|

Chorus
G|---------------------------------------------------------------------|
D|---------------------------------------------------/3-3-3-3-3-3-3-3--|
A|-3-3-3-3-3-3-3-3-------------------3-3-3-3-3-3-3-3-------------------| x1
E|------------------3-3-3-3-3-3-3-3------------------------------------|

G|-------------------------------------------------------------------|
D|------------------5-5-5-5-5-5-5-5--3-3-3-3-3-3-3-3-3-5-3-2-3-2-0---|
A|-3-3-3-3-3-3-3-3-------------------------------------------------3-| x1
E|-------------------------------------------------------------------|

G|---------------------------------------------------------------------|
D|-----------------------------------2-2-2-2-2-2-2-2--3-3-3-3-3-5-3-2--|
A|-3-3-3-3-3-3-3-3--5-5-5-5-5-5-5-5------------------------------------| x1
E|---------------------------------------------------------------------|

G|-------------------------------------------------------------------|
D|------------------5-5-5-5-5-5-5-5--3-3-3-3-3-3-3-3-3-3-3-3---------|
A|-3-3-3-3-3-3-3-3--------------------------------------------3------| x1
E|----------------------------------------------------------------3--|

Third Verse
G|---------------------------------------------------------------------|
D|---------------------------------------------------------------------|
A|-0-0-0-0-0-0-0-0-------------------3-3-3-3-3-3-3-3-------------------| x1
E|------------------1-1-1-1-1-1-1-1-------------------3-3-3-3-3-3-3-3--|

G|---------------------------------------------------------------------|
D|------------------3-3-3-3-3-3-3h5-------------------5-5-5-5-5-5-3-5--|
A|-0-0-0-0-0-0-0-0-------------------3-3-3-3-3-3-3-3-------------------| x1
E|---------------------------------------------------------------------|

G|---------------------------------------------------------------------|
D|-7-7-7-7-7-7-7-7--3-3-3-3-3-3-3-3-------------------5-5-5-5-5-5-5-5--|
A|-----------------------------------3-3-3-3-3-3-3-3-------------------| x1
E|---------------------------------------------------------------------|

G|---------------------------------------------------------------------|
D|------------------3-3-3-3-3-3-3h5-------------------5-5-5-5-5-5-5-5--|
A|-0-0-0-0-0-0-0-0-------------------3-3-3-3-3-3-3-3-------------------| x1
E|---------------------------------------------------------------------|
[ Tab from: http://www.guitartabs.cc/tabs/r/rise_against/everchanging_btab.html ]
Pre-Chorus
G|-------------------------------------------------------------------|
D|-------------------------------------------------------------------|
A|------------------------------3-3-3--------------------------------| x1
E|-3-3-3-33-----3-3-3--1-1-1-0---------------------------------------|

Chorus
G|---------------------------------------------------------------------|
D|---------------------------------------------------/3-3-3-3-3-3-3-3--|
A|-3-3-3-3-3-3-3-3-------------------3-3-3-3-3-3-3-3-------------------| x1
E|------------------3-3-3-3-3-3-3-3------------------------------------|

G|-------------------------------------------------------------------|
D|------------------5-5-5-5-5-5-5-5--3-3-3-3-3-3-3-3-3-5-3-2-3-2-0---|
A|-3-3-3-3-3-3-3-3-------------------------------------------------3-| x1
E|-------------------------------------------------------------------|

G|---------------------------------------------------------------------|
D|-----------------------------------2-2-2-2-2-2-2-2--3-3-3-3-3-5-3-2--|
A|-3-3-3-3-3-3-3-3--5-5-5-5-5-5-5-5------------------------------------| x1
E|---------------------------------------------------------------------|

G|-------------------------------------------------------------------|
D|------------------5-5-5-5-5-5-5-5--3-3-3-3-3-3-3-3-3-3-3-3-3-3-3-3-|
A|-3-3-3-3-3-3-3-3---------------------------------------------------| x1
E|-------------------------------------------------------------------|

Bridge
G|-------------------------------------------------------------------|
D|-------------------------------------------------------------------|
A|-3~~~~~~~~---------------------------------------------------------| x1
E|-------------------------------------------------------------------|

G|----------------------5-5-5-5-5-5-5-5--9-9-9-9-9-9-9/12------------|
D|-----5-5-5-5-5-5-5-5--3-3-3-3-3-3-3-3--7-7-7-7-7-7-7/10------------|
A|-/8--3-3-3-3-3-3-3-3-----------------------------------------------| x1
E|-------------------------------------------------------------------|

G|-7-7-7-7-7-7-7-7-------------------5-5-5-5-5-5-5-5--7-7-7-7-7-7-7-7--|
D|-5-5-5-5-5-5-5-5--5-5-5-5-5-5-5-5--3-3-3-3-3-3-3-3--5-5-5-5-5-5-5-5--|
A|------------------3-3-3-3-3-3-3-3------------------------------------| x1
E|---------------------------------------------------------------------|

G|-7-7-7-7-----------------------------------------------------------|
D|-5-5-5-5--5-3-2-0--------------------------------------------------|
A|-------------------------------------------------------------------| x1
E|-------------------------------------------------------------------|

G|---------------------------------------------------------------------|
D|---------------------------------------------------------------------|
A|-3-3-3-3-3-3-3-3-------------------0-0-0-0-0-0-0-0-------------------| x1
E|------------------1-1-1-1-1-1-1-1-------------------3-3-3-3-3-3-3-3--|

G|-------------------------------------------------------------------|
D|-------------------------------------------------------------------|
A|-3-3-3-3-3-3-3-3---------------------------------------------------| x1
E|------------------1-1-1-1-1-1-1-1--3-3-3-3-3-3-3-3-3-3-3-3-3-3-3-3-|

G|---------------------------------------------------------------------|
D|---------------------------------------------------------------------|
A|-3-3-3-3-3-3-3-3-------------------0-0-0-0-0-0-0-0-------------------| x1
E|------------------1-1-1-1-1-1-1-1-------------------3-3-3-3-3-3-3-3--|

G|-------------------------------------------------------------------|
D|-------------------------------------------------------------------|
A|-3-3-3-3-3-3-3-3---------------------------------------------------| x1
E|------------------1-1-1-1-1-1-1-1--3-3-3-3-3-3-3-3-3-3-3-3-3-3-3-3-|

G|---------------------------------------------------------------------|
D|---------------------------------------------------------------------|
A|-3-3-3-3-3-3-3-3-------------------0-0-0-0-0-0-0-0-------------------| x1
E|------------------1-1-1-1-1-1-1-1-------------------3-3-3-3-3-3-3-3--|

G|-------------------------------------------------------------------|
D|-------------------------------------------------------------------|
A|-3-3-3-3-3-3-3-3---------------------------------------------------| x1
E|------------------1-1-1-1-1-1-1-1--3-3-3-3-3-3-3-3-3-3-3-3-3-3-3-3-|

G|-------------------------------------------------------------------|
D|-------------------------------------------------------------------|
A|-3~~~~~~~~---------------------------------------------------------| x1
E|-------------------------------------------------------------------|
Comments