Rise Against - Diabolic Chords & Tabs

 

Diabolic Chords & Tabs

Rise Against Chords & Tabs

Version: 1 Type: Tab 0 ratings
1 star 2 stars 3 stars 4 stars 5 stars
comments

Diabolic Tab

Band- Rise Against
Song- Diabolic

NTRO/VERSE: 
e|-------------------|-----------------------------|----------------------| 
B|-------------------|-----------------------------|----------------------| 
G|-------------------|-----------4 times-----------|----------------------| 
D|-6-------6-------6-|-44454454454444--------------|4-4-------------------| 
A|-4-------4-------4-|-22232232232222--------------|2-2-------------------| 
E|-------------------|-----------------------------|----------------------| 
P.M                    ..............

CHORUS:2 times then go back to the verse and after that back to the chorus 
e|------------------------------------------------------------------------| 
B|------------------------------------------------------------------------| 
G|-----------------6-6-4-4-7-7-----------------7-7-4-4-6-6----------------| 
D|-4-4-4-4-4-4-4-4-6-6-4-4-7-7-4-4-4-4-4-4-4-4-7-7-4-4-6-6----------------| 
A|-4-4-4-4-4-4-4-4-4-4-2-2-5-5-4-4-4-4-4-4-4-4-5-5-2-2-4-4----------------| 
E|-2-2-2-2-2-2-2-2-------------2-2-2-2-2-2-2-2----------------------------| 
[ Tab from: http://www.guitartabs.cc/tabs/r/rise_against/diabolic_tab.html ]
The 2nd chorus ends with: 
e|------------------------------------------------------------------------| 
B|------------------------------------------------------------------------| 
G|------------------------------------------------------------------------| 
D|-4-----------44454454454-444444 thousand times then play:-4-4-----------| 
A|-4-----------22232232232-222222---------------------------2-2-----------| 
E|-2----------------------------------------------------------------------| 
P.M                        ......

Play the chorus and after that play this outro: 
e|------|outro:-----------------------------------------------------------| 
B|------|-----------------------------------------------------------------| 
G|------|wait!after the bass part:----------------------------------------| 
D|-4----|8-8-8-6-6-6-8-8-8-6-6-6-6-6-6------------------------------------| 
A|-4----|6-6-6-4-4-4-6-6-6-4-4-4-4-4-4-6-6-6-7-7-7-9-9-4-4-4-4-4-4-4-4----| 
E|-2----|------------------------------4-4-4-5-5-5-7-7-2-2-2-2-2-2-2-2----| 
The first 4 times the outro is played in p.m. the last times it is played normal
Comments