Rise Against - Dead Ringer Chords & Tabs

 

Dead Ringer Chords & Tabs

Rise Against Chords & Tabs

Version: 1 Type: Tab 1 rating
1 star 2 stars 3 stars 4 stars 5 stars
comments

Dead Ringer Tab

   
Song: Dead Ringer
Artist: Rise Agaisnt
Album: Revolutions per minute

Tuning is standard (e,a,d,g,b,e)

Intro:

E----------------------------------
B----------------------------------
G----------------------------------
D-4-xxxxxx-4-xxxxxx-4-xxxxxx-4---4-
A-4-xxxxxx-4-xxxxxx-4-xxxxxx-4-----
E-2-xxxxxx-2-xxxxxx-2-xxxxxx-2-2---

Harmonics                      * *


Verse:

E-------------------------------------------------
B-------------------------------------------------
G---5/6-------5/6-7-7---5/6-----99999999-66666666-
d-4-5/6-5-2-4-5/6-7-7-4-5/6-5-2-xxxxxxxx-xxxxxxxx- x2 
a-4-3/4-5-2-4-3/4-5-5-4-3/4-5-2-77777777-44444444-
E-2-----3-0-2---------2-----3-0-------------------

Then

E---
B---
G---
d-4-
A-4- then do a downward pickslide
e-2-

[ Tab from: http://www.guitartabs.cc/tabs/r/rise_against/dead_ringer_tab.html ]
E----------------------------------------------
B----------------------------------------------
G-9-99-99----------------11-11-11-11-11-7-77-77
d-9-99-99-11-11-11-11-11-11-11-11-11-11-7-77-77
A-7-77-77-11-11-11-11-11-9--9--9--9--9--—5-55-55
E---------9--9--9--9--9------------------------
        
E----------------------------------------
B----------------------------------------
G-9-99-99----------------7-77-77-7-77-77-
d-9-99-99-11-11-11-11-11-7-77-77-7-77-77-
a-7-77-77-11-11-11-11-11-5-55-55-5-55-55-
E---------9--9--9--9--9------------------

E----------------------------------------------
B----------------------------------------------
G-9-99-99----------------11-11-11-11-11-7-77-77
d-9-99-99-11-11-11-11-11-11-11-11-11-11-7-77-77
A-7-77-77-11-11-11-11-11-9--9--9--9--9—5-55-55
E---------9--9--9--9--9------------------------

E------------------------14—14—14—14------
B------------------------17b-17b-17b-17b(19)-
G-9-99-99------------------------------------
D-9-99-99-11-11-11-11-11---------------------
A-7-77-77-11-11-11-11-11---------------------
E---------9--9--9--9--9----------------------

Repeat verse and chorus 

Interlude:

E---------------
B---------------
G--------------- 
D--------------- x2
A---------------
E-2---3---4---3-

Then

E------------------------------------------------- 
Comments