Rise Against - Dance For Rain Chords & Tabs

 

Dance For Rain Chords & Tabs

Rise Against Chords & Tabs

Version: 1 Type: Bass Tab 0 ratings
1 star 2 stars 3 stars 4 stars 5 stars
comments

Dance For Rain Bass Tab

   
Band- Rise Against
Song- Dance For Rain

TUNNING - D A D G

INTRO ONCE DRUMS COME IN - 0;13

G|--------------------------|
D|--------------------------|
A|-----4-4444-0-2222-2-4444-|
D|-023----------------------|

VERSE - 0:25

G|--------------------------|------------|
D|--------------------------|------------|
A|-----4-4444-0-2222-2-4444-|444444444444|
D|-023----------------------|------------|

PAUSE - 0:39

CHORUS - 0:40

G|----------------------------------------------------------------------|
D|----------------------------------------------------------------------|
A|-------------------22222222-44444444------------------22222222-00-4---|
D|-00000000-22222222-------------------00000000-22222222----------------|

PRE-VERSE - 1:05

G|--------------------------|
D|--------------------------|
A|-----4-4444-0-2222-2-4444-|
D|-023----------------------|

VERSE - 1:18

G|--------------------------|------------|
D|--------------------------|------------|
A|-----4-4444-0-2222-2-4444-|444444444444|
D|-023----------------------|------------|

PAUSE - 1:30

CHORUS - 1:32
[ Tab from: http://www.guitartabs.cc/tabs/r/rise_against/dance_for_rain_btab.html ]
G|----------------------------------------------------------------------|
D|----------------------------------------------------------------------|
A|-------------------22222222-44444444------------------22222222-00-4---|
D|-00000000-22222222-------------------00000000-22222222----------------|

BRIDGE - 1:56


PAUSE - 0:39

CHORUS - 0:40

G|----|       |-------------------------------------|  |----------------------------------------------------------|
D|----| PAUSE |-------------------------------------|2X|----------------------------------------------------------|
A|----| START |-------------------4~44-444-03~33-333|  |--------------4(16x)-4(16x)--------------4(16x)-4(16x)----|
D|-0~~|  2:20 |-0~00-000-4~44-444-------------------|  |0(16X)-4(16x)---------------0(16X)-4(16x)--------------\--|

CHORUS - 3:08

G|--------------------------------------------------------------------|
D|--------------------------------------------------------------------|
A|-------------------22222222-44444444------------------22222222-00-4-|
D|-00000000-22222222-------------------00000000-22222222--------------|

OUTRO - 3:33

G|------------------|---|
D|------------------|---|
A|-22222222-40-4441-|---|
D|------------------|0~~|
Comments