Rise Against - Broken English Chords & Tabs

 

Broken English Chords & Tabs

Rise Against Chords & Tabs

Version: 2 Type: Tab 0 ratings
1 star 2 stars 3 stars 4 stars 5 stars
comments

Broken English Tab

   
ARTIST: Rise Against
TITLE: Broken English
ALBUM: Revolutions Per Minute
TABBED BY: kryptonite22
TUNING: Standard (E A D G B E)
NOTES: The lead bits may be slightly out, but the rhythm parts are ABSOLUTELY 100% SPOT
ON. It sounds perfect. For once. You'll have to work out the timings, but it'll become
clear when you listen to the song.

INTRO
e|------------------------------------------------|
B|------------------------------------------------|
G|--------------------------9--8------------------|
D|--6xxxx6--7xxxx7--2xxxx2--x--x------------------|
A|--4xxxx4--4xxxx4--0xxxx0--7--6------------------|
E|------------------------------------------------|

MAIN RIFF
e|------------------------------------------------|
B|------------------------------------------------|
G|------------44444444--66666666------------9--8--|
D|--22222222--44444444--66666666--77777777--x--x--|
A|--22222222--22222222--44444444--77777777--7--6--|
E|--00000000----------------------55555555--------|

LEAD GUITAR COMES IN AFTER 1.5 CYCLES OF MAIN RIFF
e|--8---8---8-11---11---11---------------------------|
B|----8---8------8---8-----11---11---11-11-8-9-8---8-|
G|----------------------------8----8-------------8---|
D|---------------------------------------------------|
A|---------------------------------------------------|
E|---------------------------------------------------|

e|---------------------------------------------------|
B|----8-9---9---9------------------------------------|
G|--8-----8---8---10---10---10-10-8-7-8--------------|
D|-------------------8----8--------------------------|
A|---------------------------------------------------|
E|---------------------------------------------------|

PRE-CHORUS ("so push us down....and we get right back up again")
e|------------------------------------------------|
B|------------------------------------------------|
G|------------------------------------------------|
D|--77777777777--9--------------------------------|
A|--77777777777--9--------------------------------|
E|--55555555555--7--------------------------------|

CHORUS (played three times)
e|------------------------------------------------|
B|------------------------------------------------|
G|--66--99----------------------------------------|
D|--66--99--66--99--7-7777777---------------------|
A|--44--77--66--99--7-7777777---------------------|
E|----------44--77--5-5555555---------------------|
                      .......

CHORUS 'ENDING' (first time through)
e|---------|
B|---------|
G|---------|
D|--44444--|
A|--44444--|
E|--22222--|
[ Tab from: http://www.guitartabs.cc/tabs/r/rise_against/broken_english_tab_ver_2.html ]
CHORUS 'ENDING' (second time)
e|--------------|
B|--------------|
G|--------------|
D|--9--9--9--9--|
A|--9--9--9--9--|
E|--7--7--7--7--|

CHORUS 'ENDING' (third time)
e|-------------------------------|
B|-------------------------------|
G|-------------------------------|
D|--44444--666666--9--7777--999--|
A|--44444--666666--9--7777--999--|
E|--22222--444444--7--5555--777--|

BREAKDOWN ("let the blind lead the blind...")
e|------------------------|
B|--5>----------------3>--|
G|--6>----6>----1>----4>--|
D|--6>----7>----2>----4>--|
A|--4>----7>----2>----2>--|
E|--------5>----0>--------|

MAIN RIFF

CHORUS

BACKING FOR SOLO (played three times, and then again without the solo. ends differently on each third time)
e|-------------------------------------------|
B|-------------------------------------------|
G|--9/8--6666--------------------------------|
D|--x/x--6666--2222--77777777----------------|
A|--7/6--4444--2222--77777777----------------|
E|-------------0000--55555555----------------|

ALTERNATE ENDING
e|-------------------------------------------------|
B|-------------------------------------------------|
G|--9/8--6666--------------------------------------|
D|--x/x--6666--2222--7777--4444--6666--9--7777--9--|
A|--7/6--4444--2222--7777--4444--6666--9--7777--9--|
E|-------------0000--5555--2222--4444--7--5555--7--|

SOLO
e|--11--------------------------------------------|
B|------------------------------------------------|
G|-----13-12----13-12----12-12/13-12--------------|
D|-----------13-------13-------------13-13-13/15--|
A|------------------------------------------------|
E|------------------------------------------------|

e|--------------------11-----------------------------|
B|---------------------------------------------------|
G|-----------------------13-12----13-12----12-12/13--|
D|--13-13-13-13/12-13----------13-------13-----------|
A|---------------------------------------------------|
E|---------------------------------------------------|

e|--------------------------------11-----------------------|
B|---------------------------------------------------------|
G|--12-15-15-15-13-12-13-15/13/12----13-12----13-12----12--|
D|-----------------------------------------13-------13-----|
A|---------------------------------------------------------|
E|---------------------------------------------------------|

e|---------------------------------------------------------------|
B|---------------------------------------------------------------|
G|--12/13-12-------------------------------------------------12--|
D|-----------13-13-13/15-13-12-12-12/13-12----------13-13/15-----|
A|-----------------------------------------13-13/15--------------|
E|---------------------------------------------------------------|

CHORUS

ENDING
e|-------|
B|-------|
G|-------|
D|--11>--|
A|--11>--|
E|--9->--|
Comments