Rise Against - Broken English Chords & Tabs

 

Broken English Chords & Tabs

Rise Against Chords & Tabs

Version: 1 Type: Bass Tab 0 ratings
1 star 2 stars 3 stars 4 stars 5 stars
comments

Broken English Bass Tab

   
Band- Rise Against
Song- Broken English

Tuning: DADG from low to high, tune E down a step (Tune it down two frets)

Notes: Time signature is 4/4 but it sounds a bit off for me, but listen to the high
hat and snare for most timing changes.

Symbols: o = Mute rest

Song Layout:
Wait 4 measures x1
Intro x1
Verse x5
Pre-Chorus x1
Chorus x1
Break Off 1 x1
Chorus x1
Break Off 2 x1
Bridge x1
Bridge Riff x2
Pre-Chorus x1
Chorus x1
Break Off 1 x1
Chorus x1
Break Off 2 x1
Solo Fill x2
Chorus x1
Break Off x1
Chorus x1
Outro Riff x1
 
Intro
G-----------------|------------------------|
D-----------------|------------------------|
A-----------------|------------11111111111-|
D-----------------|-1111111111-------------|
 

Verse

G---------------------------------------------------------|
D---------------------------------------------------------|
A-3333333333----------------6-5-------------111111111111--|
D------------6666666666666-------11111111111--------------|
 
Pre Chorus

G---------------------|
D---------------------|
A---------------------|
D-66666666666666666-8-|
 
Chorus

G---------------------------------|
D---------------------------------|
A-333-66--------------------------|
D--------555-88-6666666--33333333-|
 
Break off 1

G-------------------------------|
D-------------------------------|
A-333-66------------------------|
D--------555-88-666666--8o8o8o8-|
 
Break off 2
[ Tab from: http://www.guitartabs.cc/tabs/r/rise_against/broken_english_btab.html ]
G-----------------------------------|
D-----------------------------------|
A-----------------------------------|
D-555555555555-88-6--6666-8---------|
 
Bridge: 

G--------------------------------------------------------|
D--------------------------------------------------------|
A-3------6-----------3-5-6-5-3---5-6-5-3----5-6-5-3-1----|
D----6-------8--6-8------------6----------1--------------|
 
Bridge Riff

G------------------------------------------------------------|
D-----------------------------------------------55/666666666-|
A-333333333333------------6-5-------33/66666666--------------|
D--------------6666666666-----11111--------------------------|

Solo fill

 
G------------------------------------------|
D------------------------------------------|
A-333333333--------------------------------|
D-----------1111111111-6666666666666666666-|
 
G------------------------------------------|
D------------------------------------------|
A-333333333--------------------------------| 
D-----------1111111111-6666666666666666666-|
 
G-------------------------------------------|
D-------------------------------------------|
A-333333333---------------------------------|
D-----------1111111111-666666666-3333333333-|
 
G--------------------------------|
D--------------------------------|
A--------------------------------|
D-55555555555555-88-666666666-8--|
 
Outro Riff

G--------------------------------------------------------------|
D---------------------------------------------------------10---|
A-------------5/10101010101010-1313-111111111111-13-11-13------|
D-33333333333--------------------------------------------------|
Comments