Rise Against - Break Me Up Chords & Tabs

 

Rise Against Chords & Tabs

Version: 1 Type: Tab 0 ratings
1 star 2 stars 3 stars 4 stars 5 stars
comments

Break Me Up Tab

Band- Rise Against
Song- Break Me Up

M : palm mute 

INTRO 
there is guitar feedback throughout the drum intro then this.... 
e|---------------------------------------------------------------------------| 
B|---------------------------------------------------------------------------| 
G|---------------------------------------------------------------------------| 
D|-10-10-10-10--13-13-13-13--6-6-6-6-6-6-6-6--10-10-10-10--13-13-13-13-------| 
A|-10-10-10-10--13-13-13-13--6-6-6-6-6-6-6-6--10-10-10-10--13-13-13-13-------| 
E|-8--8--8--8---11-11-11-11--4-4-4-4-4-4-4-4--8--8--8--8---11-11-11-11-------| 

e|---------------------------------------------------------------------------| 
B|---------------------------------------------------------------------------| 
G|---------------------------------------------------------------------------| 
D|-6-6-6-6-6-6-6-6---10-10-10-10--13-13-13-13--6-6-6-6-6-6-6-6--10-10-10-10--| 
A|-6-6-6-6-6-6-6-6---10-10-10-10--13-13-13-13--6-6-6-6-6-6-6-6--10-10-10-10--| 
E|-4-4-4-4-4-4-4-4---8--8--8--8---11-11-11-11--4-4-4-4-4-4-4-4--8--8--8--8---| 
M M M M M M M M M M M M M M M M M M M M 

e|---------------------------------------------------------------------------| 
B|---------------------------------------------------------------------------| 
G|---------------------------------------------------------------------------| 
D|-13-13-13-13--6-6-6-6-6-6--7-7-6-6------(6-6)------------------------------| 
A|-13-13-13-13--6-6-6-6-6-6--7-7-6-6------(6-6)------------------------------| 
E|-11-11-11-11--4-4-4-4-4-4--5-5-4-4------(4-4)------------------------------| 
M M M M M M M M M M (M M) 

play the intro twice and on the second time end with (bracketed). 

VERSE is played by Bass Guitar. 

CHORUS 
e|------------------------------------------------------------------------| 
B|------------------------------------------------------------------------| 
G|------------------------------------------------------------------------| 
D|-7-7-7-7-7-7-7-7--3-3-3-3--8-8-8-8---7-7-7-7-7-7-7-7--3-3-3-3--5-5-5-5--| x2 
A|-7-7-7-7-7-7-7-7--3-3-3-3--8-8-8-8---7-7-7-7-7-7-7-7--3-3-3-3--5-5-5-5--| 
E|-5-5-5-5-5-5-5-5--1-1-1-1--6-6-6-6---5-5-5-5-5-5-5-5--1-1-1-1--3-3-3-3--| 
[ Tab from: http://www.guitartabs.cc/tabs/r/rise_against/break_me_up_tab.html ]
chorus then straight into cool guitar. :) :) 
e|------------------------------------------------------------------------| 
B|------------------------------------------------------------------------| 
G|------------------------------------------------------------------------| 
D|------------------------------------------------------------------------| x4 
A|-3--3-6-5-6---6-5-------------------------------------------------------| 
E|------------4-----6-----------------------------------------------------| 

out of the cool guitar into rough guitar which i think is just E powerchords. 
e|---------------------------------------------------------------------------| 
B|---------------------------------------------------------------------------| 
G|---------------------------------------------------------------------------| 
D|-2-2-2-2--2-2-2-2--2-2-2-2--2-2-2-2--2-2-2-2--2-2-2-2--2-2-2-2--2-2-2-2----| 
A|-2-2-2-2--2-2-2-2--2-2-2-2--2-2-2-2--2-2-2-2--2-2-2-2--2-2-2-2--2-2-2-2----| 
E|-0-0-0-0--0-0-0-0--0-0-0-0--0-0-0-0--0-0-0-0--0-0-0-0--0-0-0-0--0-0-0-0----| 
M M M M M M M M M M M M M M M M M M M M 
e|---------------------------------------------------------------------------| 
B|---------------------------------------------------------------------------| 
G|---------------------------------------------------------------------------| 
D|-2-2-2-2-------------------------------------------------------------------| 
A|-2-2-2-2-------------------------------------------------------------------| 
E|-0-0-0-0-------------------------------------------------------------------| 

VERSE is played by Bass. 

CHORUS 
e|------------------------------------------------------------------------| 
B|------------------------------------------------------------------------| 
G|------------------------------------------------------------------------| 
D|-7-7-7-7-7-7-7-7--3-3-3-3--8-8-8-8---7-7-7-7-7-7-7-7--3-3-3-3--5-5-5-5--| x2 
A|-7-7-7-7-7-7-7-7--3-3-3-3--8-8-8-8---7-7-7-7-7-7-7-7--3-3-3-3--5-5-5-5--| 
E|-5-5-5-5-5-5-5-5--1-1-1-1--6-6-6-6---5-5-5-5-5-5-5-5--1-1-1-1--3-3-3-3--| 

play last chord a few times and let ring into verse 

VERSE is played by Bass. 

CHORUS 
e|------------------------------------------------------------------------| 
B|------------------------------------------------------------------------| 
G|------------------------------------------------------------------------| 
D|-7-7-7-7-7-7-7-7--3-3-3-3--8-8-8-8---7-7-7-7-7-7-7-7--3-3-3-3--5-5-5-5--| x6 
A|-7-7-7-7-7-7-7-7--3-3-3-3--8-8-8-8---7-7-7-7-7-7-7-7--3-3-3-3--5-5-5-5--| 
E|-5-5-5-5-5-5-5-5--1-1-1-1--6-6-6-6---5-5-5-5-5-5-5-5--1-1-1-1--3-3-3-3--| 

Just play the chorus until you finish the song :) (6 was a rough guess)
Comments