Rise Against - Break Free Chords & Tabs

 

Break Free Chords & Tabs

Rise Against Chords & Tabs

Version: 1 Type: Tab 0 ratings
1 star 2 stars 3 stars 4 stars 5 stars
comments

Break Free Tab

Band- Rise Against
Song- Break Free

INTRO (AND CHORUS #1) 
|PM-| |PM-| |PM-| |PM-| (Repeat) 
e|------------------------------------------------------------------| 
B|------------------------------------------------------------------| 
G|------------5-5--5---5-5--5---7-7--7--7-7--7----------------------| 
D|------------5-5--5---5-5--5---7-7--7--7-7--7----------------------| 
A|----/7--5---3-3--3---3-3--3---5-5--5--5-5--5----------------------| 
E|--0---------------------------------------------------------------| 

VERSE (Repeat) 
e|------------------------------------------------------------------| 
B|------------------------------------------------------------------| 
G|------------7-5-------------5-7-----------------------------------| 
D|--2--7-5-7--7-5---2--7-5-7--5-7-----------------------------------| 
A|--2--7-5-7--5-3---2--7-5-7--3-5-----------------------------------| 
E|--0--5-3-5--------0--5-3-5----------------------------------------| 
[ Tab from: http://www.guitartabs.cc/tabs/r/rise_against/break_free_tab.html ]
BRIDGE 
e|------------------------------------------------------------------| 
B|------------------------------------------------------------------| 
G|------7--5--10-10-10----------------------------------------------| 
D|--2---7--5--10-10-10----------------------------------------------| 
A|--2---5--3---8--8--8----------------------------------------------| 
E|--0---------------------------------------------------------------| 

CHORUS #2 
e|---------------------------|--------------------------------------| 
B|---------------------------|--------------------------------------| 
G|---------------7-----------|--------------------------------------| 
D|--9-9-9-9---5--7-10--9-----|---9-9--7--9-10-----------------------| 
A|--9-9-9-9---5--5-10--9-----|---9-9--7--9-10-----------------------| 
E|--7-7-7-7---3-----8--7-----|---7-7--5--7--8-----------------------| 

-1.- (Repeat 2x) -2.- (The 3rd time play this, and come back to -1.-) 
e|-----------------|------------------------------------------------| 
B|-----------------|------------------------------------------------| 
G|-----------------|------------------------------------------------| 
D|--9-9--7--9-10---|---9-9--7--9-10--12-12-10--8-10-9---------------| 
A|--9-9--7--9-10---|---9-9--7--9-10--12-12-10--8-10-9---------------| 
E|--7-7--5--7--8---|---7-7--5--7--8--10-10--8-10--8-7---------------|
Comments