Rise Against - Blood To Bleed Chords & Tabs

 

Blood To Bleed Chords & Tabs

Rise Against Chords & Tabs

Version: 1 Type: Bass Tab 0 ratings
1 star 2 stars 3 stars 4 stars 5 stars
comments

Blood To Bleed Bass Tab

   
Artist: Rise Against
Song: Blood to Bleed
Album: Siren Song of the Counter Culture
Bassist: Joe Principe

Tuning: Gb Db Ab Eb
Time: 3/4
* = Stop Note

Intro
|-777/14-14-10-12-12-12--9--9--9-|
|-000--0--0--0--0--0--0-10-10-10-|
|--------------------------------| 4x
|--------------------------------|

Verse (2x)
|-777/14-14-10-12-12-12--9--9--9-|    |----------------|
|-000--0--0--0--0--0--0-10-10-10-|    |----------------|
|--------------------------------| 3x |---------555555-|
|--------------------------------|    |-111-333--------|

Chorus
|----------------------------|-----------------------------|
|----------------------------|-----------------------------|
|----------------------------|-----------------------------|
|-111111111111-333333-555555-|-111111111111-333333-555-333-|
[ Tab from: http://www.guitartabs.cc/tabs/r/rise_against/blood_to_bleed_btab.html ]
|----------------------------|-------------2--------------|
|----------------------------|---------------555555555555-|
|----------------------------|----------------------------|
|-111111111111-333333-555555-|-11111111111----------------|

Verse
Chorus

Solo
|------------------------------------------------------|
|------------------------------------------------------|
|-555555555555-111111111111----------------------------| 3x
|---------------------------1111111111111-333333333333-|

|------------------------------------------------------|
|-----------------------------------------555555555555-|
|-555555555555-111111111111----------------------------|
|---------------------------1111111111111--------------|

Intro

Verse 3
|-777/14-14-10-12-12-12-9--9--9--|    |-10-10-10-12-12-12-777777-|
|-000--0--0--0--0--0--0-10-10-10-|    |--0--0--0--0--0--0-000000-|
|--------------------------------| 3x |--------------------------|
|--------------------------------|    |--------------------------|

Chorus

Outro
|-------------2--------------|    |------|
|-33333333333---555555555555-|    |------|
|----------------------------| 3x |-5~~~-|
|----------------------------|    |------|
Comments