Rise Against - Blood Red White And Blue Chords & Tabs

 

Blood Red White And Blue Chords & Tabs

Rise Against Chords & Tabs

Version: 2 Type: Tab 0 ratings
1 star 2 stars 3 stars 4 stars 5 stars
comments

Blood Red White And Blue Tab

   
Song: Blood-Red White and Blue
Artist: Rise Against
Album: Revolutions Per Minute
Tuning: One half step down

/ - slide
> - play the note continuously
h - hammer-on
~ - let note ring

Intro 2x

Gb|----------------------------------------|
Db|----------------------------------------|
Ab|-7--------7----9-7-9-10>---5>--2>-------|
Eb|---000-00---00--------------------------|

Gb|----------------------------------------|
Db|----------------------------------------|
Ab|-7------------------------5>--2>--------|
Eb|---000-00-0-00-2-0-2-3>-----------------|

End Intro on

Gb|-----|
Db|-----|
Ab|-----|
Eb|--0--|

Verse 2x (wait for the guitar to do its thing first)

Gb|----|
Db|----|
Ab|-5>-|
Eb|----|

Gb|------------------------------------|
Db|------------------------------------|
Ab|------3>------------------3>---5>---|
Eb|-0>--------0>---3>---0>-------------|

Gb|-------------------|
Db|-------------------|
Ab|-/12>--10>--9>--5>-|
Eb|-------------------|

Pre-Chorus

Gb|--------|
Db|--------|
Ab|-0h2222-|
Eb|--------|
[ Tab from: http://www.guitartabs.cc/tabs/r/rise_against/blood_red_white_and_blue_tab_ver_2.html ]
Chorus

Gb|---------------------|
Db|---------------------|    2x
Ab|-------3>--------2>--|   
Eb|--0>--------3>-------|

Gb|---------------------|
Db|---------------------|
Ab|--7>---3>--------2>--|
Eb|------------3>-------|

Gb|---------------------|
Db|---------------------|
Ab|-------3>--------2>--|
Eb|--0>--------3>-------|

Verse 2x

Pre-Chorus

Chorus

Bridge
(Do this part only once)

Gb|----------------|
Db|----------------|
Ab|-7~-7~---3>--5>-|
Eb|----------------|

(Repeat this part once)

Gb|----------------------------|
Db|----------------------------|
Ab|-7-----5555-7-----5555-7----|
Eb|---0>---------0>---------0>-|

Gb|----------------------------|
Db|----------------------------|
Ab|-10-1010-9-10-12121212-10-9-| 
Eb|----------------------------| 
Solo 2x

Gb|----------------------------------|
Db|----------------------------------|
Ab|------3>------------------3>---5>-|
Eb|-0>--------0>---3>---0>-----------|

End on

Gb|-------------------|
Db|-------------------|
Ab|-0h2222-0h2222-----|
Eb|----------------0~-|
Comments