Rise Against - Black Masks And Gasoline Chords & Tabs

 

Black Masks And Gasoline Chords & Tabs

Rise Against Chords & Tabs

Version: 2 Type: Tab 0 ratings
1 star 2 stars 3 stars 4 stars 5 stars
comments

Black Masks And Gasoline Tab

Band: Rise Against
Song: Black Masks and Gasoline
Tabbed By: Kenny

INTRO
e|---------------------
B|---------------------
G|-2---2-4-4---4-6-----
D|-2-2-2-4-4-4-4-6-6---
A|-0-2-0-2-2-4-2-4-6---
E|---0-------2-----4---

VERSE
e|-44444444----------77777777----------------------
B|-44444444-99999999-77777777-1111111111111111-----
G|-44444444-99999999-88888888-1111111111111111-----
D|-66666666-99999999-99999999-1111111111111111-----
A|-66666666-77777777-99999999-9-9-9-9-9-9-9-9------
E|-44444444----------77777777----------------------

PRECHORUS
e|-------------------
B|-------------------
G|-999---------------
D|-9999-444-x4-x5----
A|-7779-444-x4-x5----
E|----7-222-x2-x3----
[ Tab from: http://www.guitartabs.cc/tabs/r/rise_against/black_masks_and_gasoline_tab_ver_2.html ]
CHORUS                  first time... second time...
e|---------------------|-------------|---------------
B|---------------------|-------------|---------------
G|------11111111-9999--|--98911------|---------------
D|-6664-11111111-9999--|--98911------|-9864----------
A|-6664-9-9-9-9--7777--|--7679-------|-9864----------
E|-4442----------------|-------------|-7642----------

POST CHORUS (is there such a thing?
e|---------------------
B|---------------------
G|-9-8-6-4-------------
D|-x-x-x-x-444444-55---
A|-7-6-4-2-444444-55---
E|---------222222-33---

VERSE
CHORUS(all three parts

BRIDGE             first time... second time...
e|----------------|-------------|----------------
B|----------------|-------------|----------------
G|----------------|---9-----6---|-444-666--------
D|-6666-6666-6666-|---9-9-4-6---|-444-666--------palm mute
A|-6666-6666-6666-|---7-9-4-4---|-222-444--------
E|-4444-4444-4444-|-----7-2-----|----------------

VERSE
CHORUS(all 3 parts)

kudos to the best guitar teacher kenny
Comments